  0
SECTION
  2
HEADER
  9
$ACADVER
  1
AC1018
  9
$ACADMAINTVER
 70
     0
  9
$DWGCODEPAGE
  3
ANSI_936
  9
$INSBASE
 10
0.0
 20
0.0
 30
0.0
  9
$EXTMIN
 10
1.000000000000000E+20
 20
1.000000000000000E+20
 30
1.000000000000000E+20
  9
$EXTMAX
 10
-1.000000000000000E+20
 20
-1.000000000000000E+20
 30
-1.000000000000000E+20
  9
$LIMMIN
 10
0.0
 20
0.0
  9
$LIMMAX
 10
12.0
 20
9.0
  9
$ORTHOMODE
 70
     0
  9
$REGENMODE
 70
     1
  9
$FILLMODE
 70
     1
  9
$QTEXTMODE
 70
     0
  9
$MIRRTEXT
 70
     1
  9
$LTSCALE
 40
1.0
  9
$ATTMODE
 70
     1
  9
$TEXTSIZE
 40
0.2
  9
$TRACEWID
 40
0.05
  9
$TEXTSTYLE
  7
Standard
  9
$CLAYER
  8
0
  9
$CELTYPE
  6
ByLayer
  9
$CECOLOR
 62
   256
  9
$CELTSCALE
 40
1.0
  9
$DISPSILH
 70
     0
  9
$DIMSCALE
 40
1.0
  9
$DIMASZ
 40
0.18
  9
$DIMEXO
 40
0.0625
  9
$DIMDLI
 40
0.38
  9
$DIMRND
 40
0.0
  9
$DIMDLE
 40
0.0
  9
$DIMEXE
 40
0.18
  9
$DIMTP
 40
0.0
  9
$DIMTM
 40
0.0
  9
$DIMTXT
 40
0.18
  9
$DIMCEN
 40
0.09
  9
$DIMTSZ
 40
0.0
  9
$DIMTOL
 70
     0
  9
$DIMLIM
 70
     0
  9
$DIMTIH
 70
     1
  9
$DIMTOH
 70
     1
  9
$DIMSE1
 70
     0
  9
$DIMSE2
 70
     0
  9
$DIMTAD
 70
     0
  9
$DIMZIN
 70
     0
  9
$DIMBLK
  1

  9
$DIMASO
 70
     1
  9
$DIMSHO
 70
     1
  9
$DIMPOST
  1

  9
$DIMAPOST
  1

  9
$DIMALT
 70
     0
  9
$DIMALTD
 70
     2
  9
$DIMALTF
 40
25.4
  9
$DIMLFAC
 40
1.0
  9
$DIMTOFL
 70
     0
  9
$DIMTVP
 40
0.0
  9
$DIMTIX
 70
     0
  9
$DIMSOXD
 70
     0
  9
$DIMSAH
 70
     0
  9
$DIMBLK1
  1

  9
$DIMBLK2
  1

  9
$DIMSTYLE
  2
Standard
  9
$DIMCLRD
 70
     0
  9
$DIMCLRE
 70
     0
  9
$DIMCLRT
 70
     0
  9
$DIMTFAC
 40
1.0
  9
$DIMGAP
 40
0.09
  9
$DIMJUST
 70
     0
  9
$DIMSD1
 70
     0
  9
$DIMSD2
 70
     0
  9
$DIMTOLJ
 70
     1
  9
$DIMTZIN
 70
     0
  9
$DIMALTZ
 70
     0
  9
$DIMALTTZ
 70
     0
  9
$DIMUPT
 70
     0
  9
$DIMDEC
 70
     4
  9
$DIMTDEC
 70
     4
  9
$DIMALTU
 70
     2
  9
$DIMALTTD
 70
     2
  9
$DIMTXSTY
  7
Standard
  9
$DIMAUNIT
 70
     0
  9
$DIMADEC
 70
     0
  9
$DIMALTRND
 40
0.0
  9
$DIMAZIN
 70
     0
  9
$DIMDSEP
 70
    46
  9
$DIMATFIT
 70
     3
  9
$DIMFRAC
 70
     0
  9
$DIMLDRBLK
  1

  9
$DIMLUNIT
 70
     2
  9
$DIMLWD
 70
    -2
  9
$DIMLWE
 70
    -2
  9
$DIMTMOVE
 70
     0
  9
$LUNITS
 70
     2
  9
$LUPREC
 70
     4
  9
$SKETCHINC
 40
0.1
  9
$FILLETRAD
 40
0.5
  9
$AUNITS
 70
     0
  9
$AUPREC
 70
     0
  9
$MENU
  1
.
  9
$ELEVATION
 40
0.0
  9
$PELEVATION
 40
0.0
  9
$THICKNESS
 40
0.0
  9
$LIMCHECK
 70
     0
  9
$CHAMFERA
 40
0.5
  9
$CHAMFERB
 40
0.5
  9
$CHAMFERC
 40
1.0
  9
$CHAMFERD
 40
0.0
  9
$SKPOLY
 70
     0
  9
$TDCREATE
 40
2456414.716696806
  9
$TDUCREATE
 40
2456414.633363472
  9
$TDUPDATE
 40
2456414.716696817
  9
$TDUUPDATE
 40
2456414.633363484
  9
$TDINDWG
 40
0.0000000116
  9
$TDUSRTIMER
 40
0.0000000116
  9
$USRTIMER
 70
     1
  9
$ANGBASE
 50
0.0
  9
$ANGDIR
 70
     0
  9
$PDMODE
 70
     0
  9
$PDSIZE
 40
0.0
  9
$PLINEWID
 40
0.0
  9
$SPLFRAME
 70
     0
  9
$SPLINETYPE
 70
     6
  9
$SPLINESEGS
 70
     8
  9
$HANDSEED
  5
71
  9
$SURFTAB1
 70
     6
  9
$SURFTAB2
 70
     6
  9
$SURFTYPE
 70
     6
  9
$SURFU
 70
     6
  9
$SURFV
 70
     6
  9
$UCSBASE
  2

  9
$UCSNAME
  2

  9
$UCSORG
 10
0.0
 20
0.0
 30
0.0
  9
$UCSXDIR
 10
1.0
 20
0.0
 30
0.0
  9
$UCSYDIR
 10
0.0
 20
1.0
 30
0.0
  9
$UCSORTHOREF
  2

  9
$UCSORTHOVIEW
 70
     0
  9
$UCSORGTOP
 10
0.0
 20
0.0
 30
0.0
  9
$UCSORGBOTTOM
 10
0.0
 20
0.0
 30
0.0
  9
$UCSORGLEFT
 10
0.0
 20
0.0
 30
0.0
  9
$UCSORGRIGHT
 10
0.0
 20
0.0
 30
0.0
  9
$UCSORGFRONT
 10
0.0
 20
0.0
 30
0.0
  9
$UCSORGBACK
 10
0.0
 20
0.0
 30
0.0
  9
$PUCSBASE
  2

  9
$PUCSNAME
  2

  9
$PUCSORG
 10
0.0
 20
0.0
 30
0.0
  9
$PUCSXDIR
 10
1.0
 20
0.0
 30
0.0
  9
$PUCSYDIR
 10
0.0
 20
1.0
 30
0.0
  9
$PUCSORTHOREF
  2

  9
$PUCSORTHOVIEW
 70
     0
  9
$PUCSORGTOP
 10
0.0
 20
0.0
 30
0.0
  9
$PUCSORGBOTTOM
 10
0.0
 20
0.0
 30
0.0
  9
$PUCSORGLEFT
 10
0.0
 20
0.0
 30
0.0
  9
$PUCSORGRIGHT
 10
0.0
 20
0.0
 30
0.0
  9
$PUCSORGFRONT
 10
0.0
 20
0.0
 30
0.0
  9
$PUCSORGBACK
 10
0.0
 20
0.0
 30
0.0
  9
$USERI1
 70
     0
  9
$USERI2
 70
     0
  9
$USERI3
 70
     0
  9
$USERI4
 70
     0
  9
$USERI5
 70
     0
  9
$USERR1
 40
0.0
  9
$USERR2
 40
0.0
  9
$USERR3
 40
0.0
  9
$USERR4
 40
0.0
  9
$USERR5
 40
0.0
  9
$WORLDVIEW
 70
     1
  9
$SHADEDGE
 70
     3
  9
$SHADEDIF
 70
    70
  9
$TILEMODE
 70
     1
  9
$MAXACTVP
 70
    64
  9
$PINSBASE
 10
0.0
 20
0.0
 30
0.0
  9
$PLIMCHECK
 70
     0
  9
$PEXTMIN
 10
1.000000000000000E+20
 20
1.000000000000000E+20
 30
1.000000000000000E+20
  9
$PEXTMAX
 10
-1.000000000000000E+20
 20
-1.000000000000000E+20
 30
-1.000000000000000E+20
  9
$PLIMMIN
 10
0.0
 20
0.0
  9
$PLIMMAX
 10
12.0
 20
9.0
  9
$UNITMODE
 70
     0
  9
$VISRETAIN
 70
     1
  9
$PLINEGEN
 70
     0
  9
$PSLTSCALE
 70
     1
  9
$TREEDEPTH
 70
  3020
  9
$CMLSTYLE
  2
Standard
  9
$CMLJUST
 70
     0
  9
$CMLSCALE
 40
1.0
  9
$PROXYGRAPHICS
 70
     1
  9
$MEASUREMENT
 70
     0
  9
$CELWEIGHT
370
    -1
  9
$ENDCAPS
280
     0
  9
$JOINSTYLE
280
     0
  9
$LWDISPLAY
290
     1
  9
$INSUNITS
 70
     1
  9
$HYPERLINKBASE
  1

  9
$STYLESHEET
  1

  9
$XEDIT
290
     1
  9
$CEPSNTYPE
380
     0
  9
$PSTYLEMODE
290
     1
  9
$FINGERPRINTGUID
  2
{9101426D-C22E-49F2-8342-455286876C73}
  9
$VERSIONGUID
  2
{FAEB1C32-E019-11D5-929B-00C0DF256EC4}
  9
$EXTNAMES
290
     1
  9
$PSVPSCALE
 40
0.0
  9
$OLESTARTUP
290
     0
  9
$SORTENTS
280
   127
  9
$INDEXCTL
280
     0
  9
$HIDETEXT
280
     1
  9
$XCLIPFRAME
290
     0
  9
$HALOGAP
280
     0
  9
$OBSCOLOR
 70
   257
  9
$OBSLTYPE
280
     0
  9
$INTERSECTIONDISPLAY
280
     0
  9
$INTERSECTIONCOLOR
 70
   257
  9
$DIMASSOC
280
     2
  9
$PROJECTNAME
  1

  0
ENDSEC
  0
SECTION
  2
CLASSES
  0
CLASS
  1
ACDBDICTIONARYWDFLT
  2
AcDbDictionaryWithDefault
  3
ObjectDBX Classes
 90
        0
 91
        3
280
     0
281
     0
  0
CLASS
  1
VISUALSTYLE
  2
AcDbVisualStyle
  3
ObjectDBX Classes
 90
     4095
 91
        3
280
     0
281
     0
  0
ENDSEC
  0
SECTION
  2
TABLES
  0
TABLE
  2
VPORT
  5
8
330
0
100
AcDbSymbolTable
 70
     1
  0
VPORT
  5
29
330
8
100
AcDbSymbolTableRecord
100
AcDbViewportTableRecord
  2
*Active
 70
     0
 10
0.0
 20
0.0
 11
1.0
 21
1.0
 12
0.0
 22
0.0
 13
0.0
 23
0.0
 14
0.5
 24
0.5
 15
0.5
 25
0.5
 16
0.0
 26
0.0
 36
1.0
 17
999.9997705290799
 27
-999.9997705290799
 37
0.0
 40
1999.99954105816
 41
1.0
 42
50.0
 43
0.0
 44
0.0
 50
0.0
 51
0.0
 71
     0
 72
   100
 73
     1
 74
     3
 75
     0
 76
     0
 77
     0
 78
     0
281
     0
 65
     1
110
0.0
120
0.0
130
0.0
111
1.0
121
0.0
131
0.0
112
0.0
122
1.0
132
0.0
 79
     0
146
0.0
  0
ENDTAB
  0
TABLE
  2
LTYPE
  5
5
330
0
100
AcDbSymbolTable
 70
     1
  0
LTYPE
  5
14
330
5
100
AcDbSymbolTableRecord
100
AcDbLinetypeTableRecord
  2
ByBlock
 70
     0
  3

 72
    65
 73
     0
 40
0.0
  0
LTYPE
  5
15
330
5
100
AcDbSymbolTableRecord
100
AcDbLinetypeTableRecord
  2
ByLayer
 70
     0
  3

 72
    65
 73
     0
 40
0.0
  0
LTYPE
  5
16
330
5
100
AcDbSymbolTableRecord
100
AcDbLinetypeTableRecord
  2
Continuous
 70
     0
  3
Solid line
 72
    65
 73
     0
 40
0.0
  0
ENDTAB
  0
TABLE
  2
LAYER
  5
2
330
0
100
AcDbSymbolTable
 70
     2
  0
LAYER
  5
10
330
2
100
AcDbSymbolTableRecord
100
AcDbLayerTableRecord
  2
0
 70
     0
 62
     7
  6
Continuous
370
    -3
390
F
  0
LAYER
  5
3B
330
2
100
AcDbSymbolTableRecord
100
AcDbLayerTableRecord
  2
Layer 1
 70
     0
 62
     7
  6
Continuous
370
    -3
390
F
  0
ENDTAB
  0
TABLE
  2
STYLE
  5
3
330
0
100
AcDbSymbolTable
 70
     1
  0
STYLE
  5
11
330
3
100
AcDbSymbolTableRecord
100
AcDbTextStyleTableRecord
  2
Standard
 70
     0
 40
0.0
 41
1.0
 50
0.0
 71
     0
 42
0.2
  3
txt
  4

  0
ENDTAB
  0
TABLE
  2
VIEW
  5
6
330
0
100
AcDbSymbolTable
 70
     0
  0
ENDTAB
  0
TABLE
  2
UCS
  5
7
330
0
100
AcDbSymbolTable
 70
     0
  0
ENDTAB
  0
TABLE
  2
APPID
  5
9
330
0
100
AcDbSymbolTable
 70
     1
  0
APPID
  5
12
330
9
100
AcDbSymbolTableRecord
100
AcDbRegAppTableRecord
  2
ACAD
 70
     0
  0
ENDTAB
  0
TABLE
  2
DIMSTYLE
  5
A
330
0
100
AcDbSymbolTable
 70
     1
100
AcDbDimStyleTable
  0
DIMSTYLE
105
27
330
A
100
AcDbSymbolTableRecord
100
AcDbDimStyleTableRecord
  2
Standard
 70
     0
340
11
  0
ENDTAB
  0
TABLE
  2
BLOCK_RECORD
  5
1
330
0
100
AcDbSymbolTable
 70
     1
  0
BLOCK_RECORD
  5
1F
330
1
100
AcDbSymbolTableRecord
100
AcDbBlockTableRecord
  2
*Model_Space
340
22
  0
BLOCK_RECORD
  5
1B
330
1
100
AcDbSymbolTableRecord
100
AcDbBlockTableRecord
  2
*Paper_Space
340
1E
  0
BLOCK_RECORD
  5
23
330
1
100
AcDbSymbolTableRecord
100
AcDbBlockTableRecord
  2
*Paper_Space0
340
26
  0
ENDTAB
  0
ENDSEC
  0
SECTION
  2
BLOCKS
  0
BLOCK
  5
20
330
1F
100
AcDbEntity
  8
0
100
AcDbBlockBegin
  2
*Model_Space
 70
     0
 71
     0
 10
0.0
 20
0.0
 30
0.0
  3
*Model_Space
  1

  0
ENDBLK
  5
21
330
1F
100
AcDbEntity
  8
0
100
AcDbBlockEnd
  0
BLOCK
  5
1C
330
1B
100
AcDbEntity
 67
     1
  8
0
100
AcDbBlockBegin
  2
*Paper_Space
 70
     0
 71
     0
 10
0.0
 20
0.0
 30
0.0
  3
*Paper_Space
  1

  0
ENDBLK
  5
1D
330
1B
100
AcDbEntity
 67
     1
  8
0
100
AcDbBlockEnd
  0
BLOCK
  5
24
330
23
100
AcDbEntity
  8
0
100
AcDbBlockBegin
  2
*Paper_Space0
 70
     0
 71
     0
 10
0.0
 20
0.0
 30
0.0
  3
*Paper_Space0
  1

  0
ENDBLK
  5
25
330
23
100
AcDbEntity
  8
0
100
AcDbBlockEnd
  0
ENDSEC
  0
SECTION
  2
ENTITIES
  0
SPLINE
  5
3C
330
1F
100
AcDbEntity
  8
Layer 1
370
     0
100
AcDbSpline
210
0.0
220
0.0
230
1.0
 70
    11
 71
     3
 72
   317
 73
   313
 74
     0
 42
0.0000000001
 43
0.0000000001
 40
0.0
 40
0.0
 40
0.0
 40
0.0
 40
1.0
 40
1.0
 40
1.0
 40
2.0
 40
2.0
 40
2.0
 40
3.0
 40
3.0
 40
3.0
 40
4.0
 40
4.0
 40
4.0
 40
5.0
 40
5.0
 40
5.0
 40
6.0
 40
6.0
 40
6.0
 40
7.0
 40
7.0
 40
7.0
 40
8.0
 40
8.0
 40
8.0
 40
9.0
 40
9.0
 40
9.0
 40
10.0
 40
10.0
 40
10.0
 40
11.0
 40
11.0
 40
11.0
 40
12.0
 40
12.0
 40
12.0
 40
13.0
 40
13.0
 40
13.0
 40
14.0
 40
14.0
 40
14.0
 40
15.0
 40
15.0
 40
15.0
 40
16.0
 40
16.0
 40
16.0
 40
17.0
 40
17.0
 40
17.0
 40
18.0
 40
18.0
 40
18.0
 40
19.0
 40
19.0
 40
19.0
 40
20.0
 40
20.0
 40
20.0
 40
21.0
 40
21.0
 40
21.0
 40
22.0
 40
22.0
 40
22.0
 40
23.0
 40
23.0
 40
23.0
 40
24.0
 40
24.0
 40
24.0
 40
25.0
 40
25.0
 40
25.0
 40
26.0
 40
26.0
 40
26.0
 40
27.0
 40
27.0
 40
27.0
 40
28.0
 40
28.0
 40
28.0
 40
29.0
 40
29.0
 40
29.0
 40
30.0
 40
30.0
 40
30.0
 40
31.0
 40
31.0
 40
31.0
 40
32.0
 40
32.0
 40
32.0
 40
33.0
 40
33.0
 40
33.0
 40
34.0
 40
34.0
 40
34.0
 40
35.0
 40
35.0
 40
35.0
 40
36.0
 40
36.0
 40
36.0
 40
37.0
 40
37.0
 40
37.0
 40
38.0
 40
38.0
 40
38.0
 40
39.0
 40
39.0
 40
39.0
 40
40.0
 40
40.0
 40
40.0
 40
41.0
 40
41.0
 40
41.0
 40
42.0
 40
42.0
 40
42.0
 40
43.0
 40
43.0
 40
43.0
 40
44.0
 40
44.0
 40
44.0
 40
45.0
 40
45.0
 40
45.0
 40
46.0
 40
46.0
 40
46.0
 40
47.0
 40
47.0
 40
47.0
 40
48.0
 40
48.0
 40
48.0
 40
49.0
 40
49.0
 40
49.0
 40
50.0
 40
50.0
 40
50.0
 40
51.0
 40
51.0
 40
51.0
 40
52.0
 40
52.0
 40
52.0
 40
53.0
 40
53.0
 40
53.0
 40
54.0
 40
54.0
 40
54.0
 40
55.0
 40
55.0
 40
55.0
 40
56.0
 40
56.0
 40
56.0
 40
57.0
 40
57.0
 40
57.0
 40
58.0
 40
58.0
 40
58.0
 40
59.0
 40
59.0
 40
59.0
 40
60.0
 40
60.0
 40
60.0
 40
61.0
 40
61.0
 40
61.0
 40
62.0
 40
62.0
 40
62.0
 40
63.0
 40
63.0
 40
63.0
 40
64.0
 40
64.0
 40
64.0
 40
65.0
 40
65.0
 40
65.0
 40
66.0
 40
66.0
 40
66.0
 40
67.0
 40
67.0
 40
67.0
 40
68.0
 40
68.0
 40
68.0
 40
69.0
 40
69.0
 40
69.0
 40
70.0
 40
70.0
 40
70.0
 40
71.0
 40
71.0
 40
71.0
 40
72.0
 40
72.0
 40
72.0
 40
73.0
 40
73.0
 40
73.0
 40
74.0
 40
74.0
 40
74.0
 40
75.0
 40
75.0
 40
75.0
 40
76.0
 40
76.0
 40
76.0
 40
77.0
 40
77.0
 40
77.0
 40
78.0
 40
78.0
 40
78.0
 40
79.0
 40
79.0
 40
79.0
 40
80.0
 40
80.0
 40
80.0
 40
81.0
 40
81.0
 40
81.0
 40
82.0
 40
82.0
 40
82.0
 40
83.0
 40
83.0
 40
83.0
 40
84.0
 40
84.0
 40
84.0
 40
85.0
 40
85.0
 40
85.0
 40
86.0
 40
86.0
 40
86.0
 40
87.0
 40
87.0
 40
87.0
 40
88.0
 40
88.0
 40
88.0
 40
89.0
 40
89.0
 40
89.0
 40
90.0
 40
90.0
 40
90.0
 40
91.0
 40
91.0
 40
91.0
 40
92.0
 40
92.0
 40
92.0
 40
93.0
 40
93.0
 40
93.0
 40
94.0
 40
94.0
 40
94.0
 40
95.0
 40
95.0
 40
95.0
 40
96.0
 40
96.0
 40
96.0
 40
97.0
 40
97.0
 40
97.0
 40
98.0
 40
98.0
 40
98.0
 40
99.0
 40
99.0
 40
99.0
 40
100.0
 40
100.0
 40
100.0
 40
101.0
 40
101.0
 40
101.0
 40
102.0
 40
102.0
 40
102.0
 40
103.0
 40
103.0
 40
103.0
 40
104.0
 40
104.0
 40
104.0
 40
104.0
 10
843.5116480096083
 20
-582.1146835567283
 30
0.0
 10
841.7909950695002
 20
-612.9636188246237
 30
0.0
 10
839.5039684316171
 20
-643.2446301017757
 30
0.0
 10
837.8678925856719
 20
-674.178142463834
 30
0.0
 10
796.9131142213447
 20
-696.3924626622735
 30
0.0
 10
745.0406560094864
 20
-712.6776012758237
 30
0.0
 10
687.9561128379936
 20
-719.6807913782395
 30
0.0
 10
658.5300020055064
 20
-723.2907346824586
 30
0.0
 10
622.285530443387
 20
-726.0898747642241
 30
0.0
 10
600.8308537994451
 20
-715.4479748102873
 30
0.0
 10
579.1014307905546
 20
-704.6698213299089
 30
0.0
 10
570.6084091455424
 20
-680.5817136970421
 30
0.0
 10
574.0230155357477
 20
-645.9593653441525
 30
0.0
 10
572.9278196809868
 20
-645.4257200534873
 30
0.0
 10
571.5296276782982
 20
-647.5518607322093
 30
0.0
 10
570.1429767454852
 20
-648.7812430561207
 30
0.0
 10
549.898217635963
 20
-666.7288124960783
 30
0.0
 10
526.9788586464671
 20
-684.7618203040699
 30
0.0
 10
501.712700612419
 20
-698.163930760789
 30
0.0
 10
473.9734807842844
 20
-712.8779335782909
 30
0.0
 10
442.0546711134447
 20
-721.676707447619
 30
0.0
 10
401.5362140923243
 20
-723.5608301685022
 30
0.0
 10
360.5965941481321
 20
-725.4645899336513
 30
0.0
 10
330.4216918119258
 20
-711.6535466428331
 30
0.0
 10
310.8836940412027
 20
-689.3456921019691
 30
0.0
 10
290.6709743196934
 20
-666.2671697010547
 30
0.0
 10
280.7666693091486
 20
-635.1107596611008
 30
0.0
 10
283.0176946992109
 20
-593.0494166269112
 30
0.0
 10
285.0988768818503
 20
-554.1675522160589
 30
0.0
 10
296.677153788678
 20
-523.7873221889316
 30
0.0
 10
315.8220661645341
 20
-500.2804021644264
 30
0.0
 10
334.4963784971051
 20
-477.3512246527976
 30
0.0
 10
359.2344033932644
 20
-458.6727782056443
 30
0.0
 10
387.0742200095683
 20
-445.9595145912011
 30
0.0
 10
445.299262041453
 20
-419.3702676360429
 30
0.0
 10
518.4558646707333
 20
-409.9649847065365
 30
0.0
 10
591.3068873304719
 20
-399.0459268208115
 30
0.0
 10
591.5421873521145
 20
-399.0459268208115
 30
0.0
 10
591.7771428642085
 20
-399.0459268208115
 30
0.0
 10
592.0124428858511
 20
-399.0459268208115
 30
0.0
 10
592.8756115596805
 20
-372.5526257749174
 30
0.0
 10
599.2023571635675
 20
-342.4052842025931
 30
0.0
 10
592.7179984412303
 20
-318.6225842844937
 30
0.0
 10
586.4203638941935
 20
-295.5249416036361
 30
0.0
 10
566.8248330288667
 20
-287.4253498630395
 30
0.0
 10
537.6915553126257
 20
-287.5819294528441
 30
0.0
 10
482.0329371624779
 20
-287.8813082505123
 30
0.0
 10
457.7469087939834
 20
-322.5179537496657
 30
0.0
 10
441.0425020598783
 20
-362.7142943429152
 30
0.0
 10
403.214664612738
 20
-363.438625668689
 30
0.0
 10
364.0925047917894
 20
-358.7837849037937
 30
0.0
 10
325.6986381564226
 20
-360.5979721863262
 30
0.0
 10
313.6687092314787
 20
-361.1664129413924
 30
0.0
 10
303.317575336497
 20
-363.5576537177043
 30
0.0
 10
293.5998222464785
 20
-367.6524942114723
 30
0.0
 10
266.5637464068834
 20
-379.045080471645
 30
0.0
 10
245.0727240055721
 20
-396.688447980255
 30
0.0
 10
231.8714626156433
 20
-423.384492895456
 30
0.0
 10
227.5695718832118
 20
-432.0840480148088
 30
0.0
 10
222.798286890915
 20
-441.6469440627654
 30
0.0
 10
221.2895073231498
 20
-451.9558755380527
 30
0.0
 10
217.7765434568406
 20
-475.9573390194656
 30
0.0
 10
219.5256184347019
 20
-502.4204954798636
 30
0.0
 10
219.5256184347019
 20
-528.4991792841079
 30
0.0
 10
219.5256184347019
 20
-606.499930675198
 30
0.0
 10
219.5256184347019
 20
-685.6377358311947
 30
0.0
 10
219.5256184347019
 20
-763.4197236589715
 30
0.0
 10
738.8275985566125
 20
-764.2427569703976
 30
0.0
 10
1259.782535492346
 20
-763.5373736697928
 30
0.0
 10
1779.666736751264
 20
-763.7725014366611
 30
0.0
 10
1779.902036772907
 20
-763.7725014366611
 30
0.0
 10
1780.136992285001
 20
-763.7725014366611
 30
0.0
 10
1780.372292306643
 20
-763.7725014366611
 30
0.0
 10
1780.375048383031
 20
-676.657405429794
 30
0.0
 10
1780.368158192061
 20
-585.8665647949397
 30
0.0
 10
1780.372292306643
 20
-498.1640800078375
 30
0.0
 10
1780.372636816192
 20
-486.4483437911484
 30
0.0
 10
1780.66030228921
 20
-475.4870834857289
 30
0.0
 10
1780.019514528954
 20
-465.3598807972885
 30
0.0
 10
1779.360467762625
 20
-454.9463906740239
 30
0.0
 10
1777.642054134583
 20
-446.4688719586953
 30
0.0
 10
1774.375759105017
 20
-437.8466592329863
 30
0.0
 10
1768.320659280142
 20
-421.8621052005241
 30
0.0
 10
1760.489612732621
 20
-407.734113125063
 30
0.0
 10
1749.331637474994
 20
-396.5768268865329
 30
0.0
 10
1728.204589411699
 20
-375.4506400971096
 30
0.0
 10
1699.430462899795
 20
-357.0286810088331
 30
0.0
 10
1652.682584222246
 20
-360.5979721863262
 30
0.0
 10
1645.425490582567
 20
-420.1238822734413
 30
0.0
 10
1636.998442516098
 20
-483.9546114241502
 30
0.0
 10
1631.871451414949
 20
-548.2523232678849
 30
0.0
 10
1630.226762830291
 20
-568.8758706260102
 30
0.0
 10
1628.195190022639
 20
-598.1219752193931
 30
0.0
 10
1645.27528441941
 20
-602.2204330634206
 30
0.0
 10
1651.46956610189
 20
-603.7068195105317
 30
0.0
 10
1659.208973109503
 20
-602.2922633042881
 30
0.0
 10
1665.380861671328
 20
-601.1622719851262
 30
0.0
 10
1681.095664727296
 20
-598.2854450001682
 30
0.0
 10
1693.047045475176
 20
-592.7529661604055
 30
0.0
 10
1704.534716370741
 20
-585.6419445693014
 30
0.0
 10
1706.458457689705
 20
-584.4509750600505
 30
0.0
 10
1708.101423726621
 20
-582.0959077863337
 30
0.0
 10
1710.530905062819
 20
-582.4672890796436
 30
0.0
 10
1708.625422749927
 20
-597.523389878831
 30
0.0
 10
1706.84017426947
 20
-613.1367348727575
 30
0.0
 10
1704.887494148431
 20
-628.6754935494283
 30
0.0
 10
1702.931024422357
 20
-644.2371621110761
 30
0.0
 10
1701.794142912225
 20
-660.0275850129445
 30
0.0
 10
1699.243394214946
 20
-674.5309202415235
 30
0.0
 10
1698.896128590033
 20
-676.5054767188944
 30
0.0
 10
1689.826570215564
 20
-680.5095389466261
 30
0.0
 10
1686.897894543553
 20
-681.9382200443592
 30
0.0
 10
1639.205715193497
 20
-705.2036388753485
 30
0.0
 10
1589.119538990741
 20
-718.9213200785163
 30
0.0
 10
1520.760231824671
 20
-722.1498913125181
 30
0.0
 10
1480.516693423274
 20
-724.0505504917304
 30
0.0
 10
1451.879681711683
 20
-720.1326156511301
 30
0.0
 10
1448.802522424258
 20
-682.6437755997384
 30
0.0
 10
1447.866145471367
 20
-671.2334470978167
 30
0.0
 10
1449.145998444137
 20
-658.8264524720122
 30
0.0
 10
1450.213633535016
 20
-647.3704764549109
 30
0.0
 10
1457.655384292704
 20
-567.5114405590771
 30
0.0
 10
1469.263289020705
 20
-489.2438665226543
 30
0.0
 10
1477.021299543939
 20
-411.3915987469785
 30
0.0
 10
1479.249931813347
 20
-389.0244885637682
 30
0.0
 10
1481.062052038589
 20
-360.9507499640158
 30
0.0
 10
1469.613999741103
 20
-347.1939669270904
 30
0.0
 10
1463.695670206993
 20
-340.0827730812119
 30
0.0
 10
1453.604985530696
 20
-339.3978880987443
 30
0.0
 10
1441.042444843732
 20
-342.6085448362229
 30
0.0
 10
1410.001445502534
 20
-350.5415662101077
 30
0.0
 10
1384.636929992382
 20
-376.7265312100719
 30
0.0
 10
1366.262857731351
 20
-399.0459268208115
 30
0.0
 10
1364.699473400145
 20
-400.9450357070554
 30
0.0
 10
1362.905612180975
 20
-402.6184908390155
 30
0.0
 10
1362.030213418173
 20
-404.3369044670582
 30
0.0
 10
1360.908490328176
 20
-406.5379759725843
 30
0.0
 10
1361.048016695328
 20
-408.8723726733896
 30
0.0
 10
1360.619102307415
 20
-412.0969820475834
 30
0.0
 10
1354.692160034591
 20
-456.6689384166488
 30
0.0
 10
1350.485353937552
 20
-501.8451645338269
 30
0.0
 10
1346.509713747574
 20
-548.2523232678849
 30
0.0
 10
1342.59608527633
 20
-593.9387680264285
 30
0.0
 10
1336.869992070296
 20
-640.7252317734125
 30
0.0
 10
1340.160402768259
 20
-689.6984698796588
 30
0.0
 10
1275.311647901658
 20
-699.3953801419915
 30
0.0
 10
1212.557166580541
 20
-713.0631074606232
 30
0.0
 10
1156.739040509426
 20
-730.6155244484225
 30
0.0
 10
1167.208685689101
 20
-642.2831039518425
 30
0.0
 10
1179.267208906572
 20
-549.9779715964465
 30
0.0
 10
1186.015806452628
 20
-457.2470254390737
 30
0.0
 10
1187.693567953945
 20
-434.1964083115898
 30
0.0
 10
1190.23122528838
 20
-410.1828869959786
 30
0.0
 10
1190.601573053044
 20
-385.9946993392653
 30
0.0
 10
1190.973643365451
 20
-361.6871391239879
 30
0.0
 10
1187.74834497216
 20
-337.1198187091229
 30
0.0
 10
1161.324462600294
 20
-341.1976059802388
 30
0.0
 10
1141.177199693004
 20
-344.3068046556768
 30
0.0
 10
1125.631895334912
 20
-356.04493399302
 30
0.0
 10
1111.941774895626
 20
-367.299888688557
 30
0.0
 10
1097.787944604025
 20
-378.9362154543111
 30
0.0
 10
1086.119750705033
 20
-391.4407062823482
 30
0.0
 10
1074.552153594209
 20
-405.3950655453526
 30
0.0
 10
1068.434697541051
 20
-451.3205999305727
 30
0.0
 10
1065.199063861304
 20
-498.130318072082
 30
0.0
 10
1061.148320589748
 20
-545.4304455559167
 30
0.0
 10
1057.113080247874
 20
-592.5478107242589
 30
0.0
 10
1052.841850865262
 20
-640.3839950655985
 30
0.0
 10
1053.035465231533
 20
-689.6984698796588
 30
0.0
 10
989.1689070877773
 20
-699.7894990655041
 30
0.0
 10
928.0439559311835
 20
-712.6180011239288
 30
0.0
 10
872.4359806846688
 20
-730.9683022261121
 30
0.0
 10
881.1644746060978
 20
-656.8675711790991
 30
0.0
 10
890.3756264050103
 20
-576.9635767871828
 30
0.0
 10
897.1269800274544
 20
-498.5168577855271
 30
0.0
 10
900.4618324571762
 20
-459.7707301367935
 30
0.0
 10
904.8898136843678
 20
-417.4055296808049
 30
0.0
 10
904.8874021175282
 20
-377.1764606804455
 30
0.0
 10
904.8860240793341
 20
-353.865566589051
 30
0.0
 10
901.8949921790402
 20
-338.9272880554591
 30
0.0
 10
877.374180553226
 20
-340.8448282025493
 30
0.0
 10
858.5105602237404
 20
-342.3198458345589
 30
0.0
 10
842.7230656530345
 20
-347.9606729273328
 30
0.0
 10
827.28559278363
 20
-354.2486612070107
 30
0.0
 10
829.7850095581788
 20
-324.883873074161
 30
0.0
 10
831.9988279170003
 20
-295.2348645637781
 30
0.0
 10
834.3404593183246
 20
-265.7124633124781
 30
0.0
 10
835.0344738038282
 20
-264.2851602529391
 30
0.0
 10
837.4727401335138
 20
-263.7308443893625
 30
0.0
 10
839.278831441656
 20
-262.89058560051
 30
0.0
 10
884.5055282076931
 20
-241.8506984529922
 30
0.0
 10
934.5627656083732
 20
-219.6675563686942
 30
0.0
 10
990.9541555682338
 20
-208.5696980272847
 30
0.0
 10
1017.617816585873
 20
-203.3223008389264
 30
0.0
 10
1060.242604986676
 20
-195.9682277613378
 30
0.0
 10
1078.079586861556
 20
-212.4497368175473
 30
0.0
 10
1097.163693302098
 20
-230.0839748231214
 30
0.0
 10
1085.022143283432
 20
-271.3581135389313
 30
0.0
 10
1084.075775553634
 20
-300.280551411475
 30
0.0
 10
1085.891685383909
 20
-300.9185830953433
 30
0.0
 10
1086.946229111944
 20
-298.639307922302
 30
0.0
 10
1087.955986598671
 20
-297.8112792224222
 30
0.0
 10
1129.999587391111
 20
-263.3384480135925
 30
0.0
 10
1175.951993521116
 20
-227.1797593290558
 30
0.0
 10
1236.104049712676
 20
-211.0387979615632
 30
0.0
 10
1266.423301549714
 20
-202.9032049731457
 30
0.0
 10
1312.138685110333
 20
-196.536668516404
 30
0.0
 10
1338.749636167049
 20
-212.8025145952369
 30
0.0
 10
1363.404462007239
 20
-227.8725680311395
 30
0.0
 10
1374.705408727504
 20
-258.1511677414518
 30
0.0
 10
1369.790290998698
 20
-300.6331569343903
 30
0.0
 10
1371.537298919269
 20
-300.7682046774121
 30
0.0
 10
1372.790969166351
 20
-299.0616766287936
 30
0.0
 10
1374.022935311876
 20
-298.1640570001118
 30
0.0
 10
1396.500805314937
 20
-281.789345903945
 30
0.0
 10
1419.770702770057
 20
-265.0802882909348
 30
0.0
 10
1444.21710033339
 20
-249.8395303737381
 30
0.0
 10
1470.263400240073
 20
-233.6012450587872
 30
0.0
 10
1498.690950146161
 20
-218.8157565099662
 30
0.0
 10
1531.342187117164
 20
-210.3332424061841
 30
0.0
 10
1548.731651088512
 20
-205.815688696376
 30
0.0
 10
1567.657283136732
 20
-203.8602524989481
 30
0.0
 10
1587.426963578838
 20
-202.9259426033484
 30
0.0
 10
1628.493535291661
 20
-200.9854925712814
 30
0.0
 10
1651.569129361413
 20
-223.0573580714058
 30
0.0
 10
1659.031895201562
 20
-257.2468301765737
 30
0.0
 10
1662.864219419354
 20
-274.805103826698
 30
0.0
 10
1660.934965947614
 20
-294.4569620032087
 30
0.0
 10
1657.973561868493
 20
-314.3897677165415
 30
0.0
 10
1710.342458339775
 20
-314.1968423693675
 30
0.0
 10
1745.369777666956
 20
-330.8332084676389
 30
0.0
 10
1772.612214726118
 20
-355.3069945400795
 30
0.0
 10
1799.520133013662
 20
-379.4801960314321
 30
0.0
 10
1820.2165441413
 20
-413.0137219562084
 30
0.0
 10
1825.169213410895
 20
-457.9524087396786
 30
0.0
 10
1827.850186717517
 20
-482.2739215916711
 30
0.0
 10
1826.228924782158
 20
-508.4445894453715
 30
0.0
 10
1826.227546743964
 20
-534.848318008649
 30
0.0
 10
1826.211010285635
 20
-897.4987058303128
 30
0.0
 10
1826.244083202293
 20
-1260.416777571181
 30
0.0
 10
1826.227546743964
 20
-1622.326125353967
 30
0.0
 10
1826.226857724867
 20
-1635.724101696104
 30
0.0
 10
1826.44803285502
 20
-1648.244267708599
 30
0.0
 10
1825.169213410895
 20
-1660.068524433073
 30
0.0
 10
1819.132372592092
 20
-1715.894229714256
 30
0.0
 10
1787.873298706678
 20
-1755.498358393591
 30
0.0
 10
1749.684415252683
 20
-1778.940166113425
 30
0.0
 10
1733.68366927144
 20
-1788.761444322775
 30
0.0
 10
1715.487363937448
 20
-1796.602481647204
 30
0.0
 10
1693.59963879101
 20
-1800.456854476101
 30
0.0
 10
1672.153574885781
 20
-1804.233368147032
 30
0.0
 10
1645.968437631043
 20
-1802.572143104044
 30
0.0
 10
1618.114840632798
 20
-1802.572832123142
 30
0.0
 10
1205.694191864375
 20
-1802.585923485986
 30
0.0
 10
787.1383448010453
 20
-1802.560429779395
 30
0.0
 10
375.0813258610908
 20
-1802.572832123142
 30
0.0
 10
346.8291313152025
 20
-1802.574210161336
 30
0.0
 10
322.0092854012685
 20
-1803.610494883299
 30
0.0
 10
300.6545165263989
 20
-1799.045743365343
 30
0.0
 10
279.2442816142167
 20
-1794.46858950364
 30
0.0
 10
261.4515692163212
 20
-1786.478724054248
 30
0.0
 10
245.980851175484
 20
-1776.117943891908
 30
0.0
 10
215.2821220707455
 20
-1755.561059131422
 30
0.0
 10
191.8556450258208
 20
-1727.58068261932
 30
0.0
 10
180.0196749766965
 20
-1686.876190441996
 30
0.0
 10
177.0746351011307
 20
-1676.748987753556
 30
0.0
 10
174.8404906789461
 20
-1665.706078685136
 30
0.0
 10
174.0231417750706
 20
-1653.719213453758
 30
0.0
 10
173.2014865018385
 20
-1641.669647484548
 30
0.0
 10
173.670363997381
 20
-1628.632028130168
 30
0.0
 10
173.670363997381
 20
-1615.271258819273
 30
0.0
 10
173.670363997381
 20
-1253.75327388361
 30
0.0
 10
173.670363997381
 20
-890.9836857581569
 30
0.0
 10
173.670363997381
 20
-527.7936237287287
 30
0.0
 10
173.670363997381
 20
-501.6167547031549
 30
0.0
 10
172.0714951826766
 20
-475.4219711810577
 30
0.0
 10
175.4339083762804
 20
-451.9558755380527
 30
0.0
 10
181.696058439819
 20
-408.2557005815298
 30
0.0
 10
203.4146293979311
 20
-375.7141899017312
 30
0.0
 10
230.8131292825745
 20
-352.1323390504218
 30
0.0
 10
258.3873290369657
 20
-328.3994207620842
 30
0.0
 10
295.4544894009628
 20
-312.9147500845318
 30
0.0
 10
348.2734875973935
 20
-314.3897677165415
 30
0.0
 10
350.8037379765352
 20
-291.1705131650546
 30
0.0
 10
352.6647785576671
 20
-267.2817043060094
 30
0.0
 10
354.6226263219347
 20
-243.4902193944226
 30
0.0
 10
423.9997869491216
 20
-215.1915160594834
 30
0.0
 10
507.9462563834301
 20
-204.8458943172781
 30
0.0
 10
600.8308537994451
 20
-200.4568426690698
 30
0.0
 10
660.1529864886077
 20
-197.6537407274963
 30
0.0
 10
716.8256684948387
 20
-205.4129570341503
 30
0.0
 10
748.6261391357601
 20
-230.7919419453402
 30
0.0
 10
765.902603975191
 20
-244.5795585868586
 30
0.0
 10
776.161409311168
 20
-261.5590561954609
 30
0.0
 10
777.5504718108208
 20
-290.7565849425018
 30
0.0
 10
778.8578855474731
 20
-318.2396619213081
 30
0.0
 10
774.7907780723614
 20
-345.895682693474
 30
0.0
 10
772.2593219097998
 20
-373.6490274130982
 30
0.0
 10
767.3374862447976
 20
-427.6126585845031
 30
0.0
 10
759.9617090656519
 20
-480.031508940322
 30
0.0
 10
756.3863889710597
 20
-535.9064790869436
 30
0.0
 10
754.6991534571586
 20
-562.273345128529
 30
0.0
 10
751.5467188333807
 20
-599.9060179164297
 30
0.0
 10
776.492138477752
 20
-602.5732108411102
 30
0.0
 10
790.2745874760425
 20
-604.0468504349258
 30
0.0
 10
803.7933144149371
 20
-600.0302136086731
 30
0.0
 10
814.5874875893219
 20
-596.2238998617947
 30
0.0
 10
824.1695039172215
 20
-592.845122464636
 30
0.0
 10
832.6139497158916
 20
-588.1529024137257
 30
0.0
 10
840.68977029764
 20
-583.1728446350228
 30
0.0
 10
841.4833480426674
 20
-582.683468821343
 30
0.0
 10
842.4376394920816
 20
-581.583622087677
 30
0.0
 10
843.5116480096083
 20
-582.1146835567283
 30
0.0
  0
SPLINE
  5
3D
330
1F
100
AcDbEntity
  8
Layer 1
370
     0
100
AcDbSpline
210
0.0
220
0.0
230
1.0
 70
    11
 71
     3
 72
    32
 73
    28
 74
     0
 42
0.0000000001
 43
0.0000000001
 40
0.0
 40
0.0
 40
0.0
 40
0.0
 40
1.0
 40
1.0
 40
1.0
 40
2.0
 40
2.0
 40
2.0
 40
3.0
 40
3.0
 40
3.0
 40
4.0
 40
4.0
 40
4.0
 40
5.0
 40
5.0
 40
5.0
 40
6.0
 40
6.0
 40
6.0
 40
7.0
 40
7.0
 40
7.0
 40
8.0
 40
8.0
 40
8.0
 40
9.0
 40
9.0
 40
9.0
 40
9.0
 10
582.4886486716522
 20
-477.352774945766
 30
0.0
 10
548.3084783242945
 20
-479.0611977969014
 30
0.0
 10
516.7360730044966
 20
-484.2381427825863
 30
0.0
 10
493.2470674765146
 20
-496.0475855964742
 30
0.0
 10
468.8433890971989
 20
-508.316948657643
 30
0.0
 10
454.4862981719687
 20
-529.6408839279196
 30
0.0
 10
455.5044961426343
 20
-566.241578363214
 30
0.0
 10
456.455859260886
 20
-600.4351845829641
 30
0.0
 10
478.666562109066
 20
-618.9060640271312
 30
0.0
 10
515.4693113945702
 20
-609.9805106439459
 30
0.0
 10
535.6913328738897
 20
-605.0762449659185
 30
0.0
 10
552.1368406822783
 20
-592.4938949799148
 30
0.0
 10
565.9101601775329
 20
-579.6454113676755
 30
0.0
 10
569.5194144626549
 20
-576.2786918047151
 30
0.0
 10
577.638298737969
 20
-569.6654865112295
 30
0.0
 10
578.9613876590792
 20
-565.5361950626091
 30
0.0
 10
579.9170571466874
 20
-562.5532591367055
 30
0.0
 10
579.6743501697516
 20
-558.274967308348
 30
0.0
 10
580.0195487373736
 20
-554.601461992426
 30
0.0
 10
581.0751259940541
 20
-543.3680391436719
 30
0.0
 10
582.2106294659925
 20
-531.6476520480777
 30
0.0
 10
583.1942042270314
 20
-521.0917072264979
 30
0.0
 10
584.5925684844942
 20
-506.0812539424902
 30
0.0
 10
586.6143227700131
 20
-491.6745536422724
 30
0.0
 10
586.3686874619148
 20
-476.9999971680764
 30
0.0
 10
584.2642508847499
 20
-476.7169825739632
 30
0.0
 10
583.4904824387628
 20
-477.3026488064556
 30
0.0
 10
582.4886486716522
 20
-477.352774945766
 30
0.0
  0
SPLINE
  5
3E
330
1F
100
AcDbEntity
  8
Layer 1
370
     0
100
AcDbSpline
210
0.0
220
0.0
230
1.0
 70
    11
 71
     3
 72
    47
 73
    43
 74
     0
 42
0.0000000001
 43
0.0000000001
 40
0.0
 40
0.0
 40
0.0
 40
0.0
 40
1.0
 40
1.0
 40
1.0
 40
2.0
 40
2.0
 40
2.0
 40
3.0
 40
3.0
 40
3.0
 40
4.0
 40
4.0
 40
4.0
 40
5.0
 40
5.0
 40
5.0
 40
6.0
 40
6.0
 40
6.0
 40
7.0
 40
7.0
 40
7.0
 40
8.0
 40
8.0
 40
8.0
 40
9.0
 40
9.0
 40
9.0
 40
10.0
 40
10.0
 40
10.0
 40
11.0
 40
11.0
 40
11.0
 40
12.0
 40
12.0
 40
12.0
 40
13.0
 40
13.0
 40
13.0
 40
14.0
 40
14.0
 40
14.0
 40
14.0
 10
646.686108236766
 20
-971.1796519924482
 30
0.0
 10
643.2857989928244
 20
-969.7954126264748
 30
0.0
 10
642.8040023892122
 20
-961.4124617822164
 30
0.0
 10
643.158847224193
 20
-953.8959524524982
 30
0.0
 10
645.0696694350868
 20
-913.4191810867494
 30
0.0
 10
650.1344765627268
 20
-876.059187606506
 30
0.0
 10
653.7408025166864
 20
-837.8465329936635
 30
0.0
 10
654.3671208759048
 20
-831.2116235986207
 30
0.0
 10
655.7312064332895
 20
-824.6163328016585
 30
0.0
 10
655.50451915036
 20
-818.446166787576
 30
0.0
 10
655.1260754113054
 20
-808.1418861911937
 30
0.0
 10
650.7695799154326
 20
-805.057147693701
 30
0.0
 10
639.9841917345352
 20
-805.7475448289451
 30
0.0
 10
621.7360377134896
 20
-806.9168102366389
 30
0.0
 10
600.2393309046276
 20
-813.378775838322
 30
0.0
 10
584.6051430830154
 20
-818.446166787576
 30
0.0
 10
583.9326604442946
 20
-826.3571395503552
 30
0.0
 10
583.0803438212438
 20
-834.0875893097073
 30
0.0
 10
582.1360431487368
 20
-841.7267440387003
 30
0.0
 10
586.8062145885415
 20
-841.7281220768944
 30
0.0
 10
598.3598590626497
 20
-835.006051766075
 30
0.0
 10
604.0055092891029
 20
-839.6100773725628
 30
0.0
 10
607.0504569337409
 20
-842.0933021983309
 30
0.0
 10
605.9757593971171
 20
-851.5252846178479
 30
0.0
 10
605.4162758903126
 20
-859.0107880881988
 30
0.0
 10
602.594742687893
 20
-896.7721351924737
 30
0.0
 10
598.9758421354123
 20
-934.0311873749991
 30
0.0
 10
596.5978649767186
 20
-971.1796519924482
 30
0.0
 10
595.6098115915489
 20
-986.6171248618527
 30
0.0
 10
593.1996227900681
 20
-1000.964225010176
 30
0.0
 10
607.5327703016759
 20
-1002.573429111336
 30
0.0
 10
617.8296439427648
 20
-1003.728914137089
 30
0.0
 10
628.5559487360902
 20
-1001.004532627353
 30
0.0
 10
637.8678695779463
 20
-998.6928735567504
 30
0.0
 10
647.410611817314
 20
-996.3243704106412
 30
0.0
 10
655.7914956042813
 20
-993.8676728201095
 30
0.0
 10
663.6173745085748
 20
-989.874807152705
 30
0.0
 10
663.8056489768437
 20
-981.8325762519378
 30
0.0
 10
664.4779593607902
 20
-974.2743812668481
 30
0.0
 10
665.0283133645589
 20
-966.5942299015807
 30
0.0
 10
660.6068778187893
 20
-967.2446639291958
 30
0.0
 10
653.3954316942901
 20
-973.9112682027028
 30
0.0
 10
646.686108236766
 20
-971.1796519924482
 30
0.0
  0
SPLINE
  5
3F
330
1F
100
AcDbEntity
  8
Layer 1
370
     0
100
AcDbSpline
210
0.0
220
0.0
230
1.0
 70
    11
 71
     3
 72
    47
 73
    43
 74
     0
 42
0.0000000001
 43
0.0000000001
 40
0.0
 40
0.0
 40
0.0
 40
0.0
 40
1.0
 40
1.0
 40
1.0
 40
2.0
 40
2.0
 40
2.0
 40
3.0
 40
3.0
 40
3.0
 40
4.0
 40
4.0
 40
4.0
 40
5.0
 40
5.0
 40
5.0
 40
6.0
 40
6.0
 40
6.0
 40
7.0
 40
7.0
 40
7.0
 40
8.0
 40
8.0
 40
8.0
 40
9.0
 40
9.0
 40
9.0
 40
10.0
 40
10.0
 40
10.0
 40
11.0
 40
11.0
 40
11.0
 40
12.0
 40
12.0
 40
12.0
 40
13.0
 40
13.0
 40
13.0
 40
14.0
 40
14.0
 40
14.0
 40
14.0
 10
1630.107562526501
 20
-971.1796519924482
 30
0.0
 10
1626.707253282559
 20
-969.7954126264748
 30
0.0
 10
1626.225628933722
 20
-961.4124617822164
 30
0.0
 10
1626.580129259154
 20
-953.8959524524982
 30
0.0
 10
1628.490434705725
 20
-913.419525596298
 30
0.0
 10
1633.553347030848
 20
-876.0584985874091
 30
0.0
 10
1637.162429061196
 20
-837.8465329936635
 30
0.0
 10
1637.789091929963
 20
-831.2116235986207
 30
0.0
 10
1639.152316213476
 20
-824.6163328016585
 30
0.0
 10
1638.925973440095
 20
-818.446166787576
 30
0.0
 10
1638.548046465363
 20
-808.1418861911937
 30
0.0
 10
1634.190689695619
 20
-805.057147693701
 30
0.0
 10
1623.405818279045
 20
-805.7475448289451
 30
0.0
 10
1605.157492003225
 20
-806.9168102366389
 30
0.0
 10
1583.660785194363
 20
-813.378775838322
 30
0.0
 10
1568.02659737275
 20
-818.446166787576
 30
0.0
 10
1567.35411473403
 20
-826.3571395503552
 30
0.0
 10
1566.501798110979
 20
-834.0875893097073
 30
0.0
 10
1565.557497438472
 20
-841.7267440387003
 30
0.0
 10
1570.227324368728
 20
-841.7281220768944
 30
0.0
 10
1581.781485607159
 20
-835.006051766075
 30
0.0
 10
1587.426963578838
 20
-839.6100773725628
 30
0.0
 10
1590.472427987799
 20
-842.093991217428
 30
0.0
 10
1589.396524667755
 20
-851.5249401082993
 30
0.0
 10
1588.837730180048
 20
-859.0107880881988
 30
0.0
 10
1586.019642073113
 20
-896.7724797020222
 30
0.0
 10
1582.39781318947
 20
-934.0308428654506
 30
0.0
 10
1580.019663776002
 20
-971.1796519924482
 30
0.0
 10
1579.031265881284
 20
-986.6171248618527
 30
0.0
 10
1576.621077079803
 20
-1000.964225010176
 30
0.0
 10
1590.954396846185
 20
-1002.573429111336
 30
0.0
 10
1601.2510982325
 20
-1003.728914137089
 30
0.0
 10
1611.977403025825
 20
-1001.004532627353
 30
0.0
 10
1621.289151612907
 20
-998.6928735567504
 30
0.0
 10
1630.832066107049
 20
-996.3243704106412
 30
0.0
 10
1639.212949894016
 20
-993.8676728201095
 30
0.0
 10
1647.03882879831
 20
-989.874807152705
 30
0.0
 10
1647.227275521353
 20
-981.8325762519378
 30
0.0
 10
1647.899413650525
 20
-974.2743812668481
 30
0.0
 10
1648.449939909068
 20
-966.5942299015807
 30
0.0
 10
1644.028504363298
 20
-967.2446639291958
 30
0.0
 10
1636.816885984025
 20
-973.9112682027028
 30
0.0
 10
1630.107562526501
 20
-971.1796519924482
 30
0.0
  0
SPLINE
  5
40
330
1F
100
AcDbEntity
  8
Layer 1
370
     0
100
AcDbSpline
210
0.0
220
0.0
230
1.0
 70
    11
 71
     3
 72
    53
 73
    49
 74
     0
 42
0.0000000001
 43
0.0000000001
 40
0.0
 40
0.0
 40
0.0
 40
0.0
 40
1.0
 40
1.0
 40
1.0
 40
2.0
 40
2.0
 40
2.0
 40
3.0
 40
3.0
 40
3.0
 40
4.0
 40
4.0
 40
4.0
 40
5.0
 40
5.0
 40
5.0
 40
6.0
 40
6.0
 40
6.0
 40
7.0
 40
7.0
 40
7.0
 40
8.0
 40
8.0
 40
8.0
 40
9.0
 40
9.0
 40
9.0
 40
10.0
 40
10.0
 40
10.0
 40
11.0
 40
11.0
 40
11.0
 40
12.0
 40
12.0
 40
12.0
 40
13.0
 40
13.0
 40
13.0
 40
14.0
 40
14.0
 40
14.0
 40
15.0
 40
15.0
 40
15.0
 40
16.0
 40
16.0
 40
16.0
 40
16.0
 10
471.0248235584591
 20
-970.8272187243072
 30
0.0
 10
466.4638616455368
 20
-968.9327607169682
 30
0.0
 10
466.9809704778729
 20
-958.45002417445
 30
0.0
 10
467.4975625458861
 20
-951.7796302959093
 30
0.0
 10
468.1183687523281
 20
-943.7615150635388
 30
0.0
 10
469.0011744704233
 20
-936.6442923005612
 30
0.0
 10
469.6137124477008
 20
-930.6157197109225
 30
0.0
 10
471.2246390966036
 20
-914.7634573450939
 30
0.0
 10
477.1030055230854
 20
-886.3882728903822
 30
0.0
 10
467.8501680688014
 20
-876.2944876281487
 30
0.0
 10
460.398426534206
 20
-868.1654403211531
 30
0.0
 10
439.018508462294
 20
-864.0158228091697
 30
0.0
 10
421.9949136314805
 20
-866.0653101133448
 30
0.0
 10
400.5311074845027
 20
-868.6494762368308
 30
0.0
 10
378.1443602570264
 20
-869.051863389508
 30
0.0
 10
360.6191595235605
 20
-877.7052542293585
 30
0.0
 10
359.6851941375093
 20
-887.9413219351328
 30
0.0
 10
359.0407890269933
 20
-898.4667776616681
 30
0.0
 10
357.4445040339028
 20
-908.0406980151773
 30
0.0
 10
365.4712320049863
 20
-908.7145586920923
 30
0.0
 10
374.6224391424555
 20
-908.2639402026216
 30
0.0
 10
383.1941812193056
 20
-908.393475792867
 30
0.0
 10
386.3753823903853
 20
-902.0048907250197
 30
0.0
 10
388.5054849289153
 20
-897.2003605612903
 30
0.0
 10
394.4816920671782
 20
-893.2257538999575
 30
0.0
 10
399.905305889607
 20
-889.618738926901
 30
0.0
 10
413.0995048337911
 20
-886.3424531204283
 30
0.0
 10
420.5839747754964
 20
-890.7566539656789
 30
0.0
 10
428.3431910821503
 20
-895.3327742987362
 30
0.0
 10
425.8615165493506
 20
-911.5264456271532
 30
0.0
 10
424.8167913434486
 20
-923.5608531762279
 30
0.0
 10
423.5479626762311
 20
-938.1756372437547
 30
0.0
 10
422.2000690676271
 20
-953.099790885857
 30
0.0
 10
420.9365802984117
 20
-967.6525632346494
 30
0.0
 10
420.2565184496234
 20
-975.4870548776561
 30
0.0
 10
418.8085448171729
 20
-983.3074216291732
 30
0.0
 10
419.5258136972019
 20
-990.2275849303945
 30
0.0
 10
420.3695175815396
 20
-998.3686900715884
 30
0.0
 10
425.6947739278645
 20
-1001.941598599341
 30
0.0
 10
433.282424479353
 20
-1002.573429111336
 30
0.0
 10
454.2947508629888
 20
-1004.322504089197
 30
0.0
 10
474.2454710728449
 20
-996.5975664826215
 30
0.0
 10
488.6614731308728
 20
-990.2275849303945
 30
0.0
 10
489.0924545760776
 20
-982.1929332396949
 30
0.0
 10
489.7826794565474
 20
-974.417352729486
 30
0.0
 10
490.0724119868569
 20
-966.2414521238911
 30
0.0
 10
485.4690753994661
 20
-966.9483857174644
 30
0.0
 10
478.2817449433636
 20
-973.8413327643522
 30
0.0
 10
471.0248235584591
 20
-970.8272187243072
 30
0.0
  0
SPLINE
  5
41
330
1F
100
AcDbEntity
  8
Layer 1
370
     0
100
AcDbSpline
210
0.0
220
0.0
230
1.0
 70
    11
 71
     3
 72
    53
 73
    49
 74
     0
 42
0.0000000001
 43
0.0000000001
 40
0.0
 40
0.0
 40
0.0
 40
0.0
 40
1.0
 40
1.0
 40
1.0
 40
2.0
 40
2.0
 40
2.0
 40
3.0
 40
3.0
 40
3.0
 40
4.0
 40
4.0
 40
4.0
 40
5.0
 40
5.0
 40
5.0
 40
6.0
 40
6.0
 40
6.0
 40
7.0
 40
7.0
 40
7.0
 40
8.0
 40
8.0
 40
8.0
 40
9.0
 40
9.0
 40
9.0
 40
10.0
 40
10.0
 40
10.0
 40
11.0
 40
11.0
 40
11.0
 40
12.0
 40
12.0
 40
12.0
 40
13.0
 40
13.0
 40
13.0
 40
14.0
 40
14.0
 40
14.0
 40
15.0
 40
15.0
 40
15.0
 40
16.0
 40
16.0
 40
16.0
 40
16.0
 10
978.2558781191514
 20
-970.8272187243072
 30
0.0
 10
973.6949162062291
 20
-968.9327607169682
 30
0.0
 10
974.2123695481137
 20
-958.45002417445
 30
0.0
 10
974.728444851804
 20
-951.7796302959093
 30
0.0
 10
975.3492510582461
 20
-943.7611705539903
 30
0.0
 10
976.231884521567
 20
-936.6442923005612
 30
0.0
 10
976.8451115179415
 20
-930.6157197109225
 30
0.0
 10
978.4560381668443
 20
-914.7638018546425
 30
0.0
 10
984.3337155742291
 20
-886.3879283808336
 30
0.0
 10
975.0812226294936
 20
-876.2944876281487
 30
0.0
 10
967.6298256044468
 20
-868.1657848307017
 30
0.0
 10
946.2492185134378
 20
-864.0154782996211
 30
0.0
 10
929.2256236826242
 20
-866.0653101133448
 30
0.0
 10
907.7619897904207
 20
-868.6498207463793
 30
0.0
 10
885.3750703081702
 20
-869.0511743704109
 30
0.0
 10
867.8502140842528
 20
-877.7052542293585
 30
0.0
 10
866.9162486982016
 20
-887.9413219351328
 30
0.0
 10
866.2720158424598
 20
-898.4667776616681
 30
0.0
 10
864.675558594595
 20
-908.0406980151773
 30
0.0
 10
872.7022865656786
 20
-908.7145586920923
 30
0.0
 10
881.8534937031478
 20
-908.2639402026216
 30
0.0
 10
890.4252357799979
 20
-908.393475792867
 30
0.0
 10
893.6060924415291
 20
-902.0048907250197
 30
0.0
 10
895.7365394896076
 20
-897.2003605612903
 30
0.0
 10
901.712402118322
 20
-893.2257538999575
 30
0.0
 10
907.1363604502993
 20
-889.6190834364494
 30
0.0
 10
920.3303871397092
 20
-886.3421086108798
 30
0.0
 10
927.8148570814144
 20
-890.7566539656789
 30
0.0
 10
935.5742456428426
 20
-895.3331188082848
 30
0.0
 10
933.0923988552686
 20
-911.5264456271532
 30
0.0
 10
932.0478459041409
 20
-923.5608531762279
 30
0.0
 10
930.7793617464719
 20
-938.1756372437547
 30
0.0
 10
929.4312958830936
 20
-953.099790885857
 30
0.0
 10
928.1676348591039
 20
-967.6525632346494
 30
0.0
 10
927.4872285007672
 20
-975.4873993872046
 30
0.0
 10
926.0395993778651
 20
-983.3070771196246
 30
0.0
 10
926.7568682578942
 20
-990.2275849303945
 30
0.0
 10
927.6002276326833
 20
-998.3686900715884
 30
0.0
 10
932.9263452528795
 20
-1001.941598599341
 30
0.0
 10
940.5131345304968
 20
-1002.573429111336
 30
0.0
 10
961.525805423681
 20
-1004.322504089197
 30
0.0
 10
981.4766978883114
 20
-996.5975664826215
 30
0.0
 10
995.8923554367908
 20
-990.2275849303945
 30
0.0
 10
996.3236813915441
 20
-982.1929332396949
 30
0.0
 10
997.0137340172397
 20
-974.417352729486
 30
0.0
 10
997.3034665475492
 20
-966.2414521238911
 30
0.0
 10
992.7001299601584
 20
-966.9483857174644
 30
0.0
 10
985.5129717588302
 20
-973.8413327643522
 30
0.0
 10
978.2558781191514
 20
-970.8272187243072
 30
0.0
  0
SPLINE
  5
42
330
1F
100
AcDbEntity
  8
Layer 1
370
     0
100
AcDbSpline
210
0.0
220
0.0
230
1.0
 70
    11
 71
     3
 72
    56
 73
    52
 74
     0
 42
0.0000000001
 43
0.0000000001
 40
0.0
 40
0.0
 40
0.0
 40
0.0
 40
1.0
 40
1.0
 40
1.0
 40
2.0
 40
2.0
 40
2.0
 40
3.0
 40
3.0
 40
3.0
 40
4.0
 40
4.0
 40
4.0
 40
5.0
 40
5.0
 40
5.0
 40
6.0
 40
6.0
 40
6.0
 40
7.0
 40
7.0
 40
7.0
 40
8.0
 40
8.0
 40
8.0
 40
9.0
 40
9.0
 40
9.0
 40
10.0
 40
10.0
 40
10.0
 40
11.0
 40
11.0
 40
11.0
 40
12.0
 40
12.0
 40
12.0
 40
13.0
 40
13.0
 40
13.0
 40
14.0
 40
14.0
 40
14.0
 40
15.0
 40
15.0
 40
15.0
 40
16.0
 40
16.0
 40
16.0
 40
17.0
 40
17.0
 40
17.0
 40
17.0
 10
756.0336111933701
 20
-891.8149872987477
 30
0.0
 10
755.0803532726014
 20
-885.0388289888098
 30
0.0
 10
755.0553763303334
 20
-875.7443058791542
 30
0.0
 10
751.4480168477284
 20
-871.003509981902
 30
0.0
 10
748.4511282851095
 20
-867.0647323136158
 30
0.0
 10
741.3831703875709
 20
-866.3460853953927
 30
0.0
 10
735.2223061312986
 20
-866.7705211591755
 30
0.0
 10
717.1219467065703
 20
-868.01902376303
 30
0.0
 10
702.2668672289471
 20
-876.46467534512
 30
0.0
 10
689.0142739162882
 20
-882.6437986074641
 30
0.0
 10
688.3299056981432
 20
-890.3074135144024
 30
0.0
 10
687.6791271609795
 20
-898.0044458475476
 30
0.0
 10
687.2505572826145
 20
-905.9240313490399
 30
0.0
 10
691.4856131626321
 20
-904.4012991445594
 30
0.0
 10
699.8217107082911
 20
-899.6002140763153
 30
0.0
 10
705.945540188097
 20
-902.3969425912411
 30
0.0
 10
711.8237343598045
 20
-905.0813609933477
 30
0.0
 10
712.3882132550627
 20
-917.1219697142959
 30
0.0
 10
713.7056177686222
 20
-924.9719642869862
 30
0.0
 10
718.0760659012102
 20
-951.0127520408927
 30
0.0
 10
722.2568615273351
 20
-979.6979950892769
 30
0.0
 10
723.9347952834261
 20
-1005.747740091445
 30
0.0
 10
737.2249401368744
 20
-1000.578029806279
 30
0.0
 10
752.0343720993178
 20
-996.9276066301085
 30
0.0
 10
769.0848386749163
 20
-995.5185625766412
 30
0.0
 10
785.9349729480475
 20
-973.8010251471748
 30
0.0
 10
805.7132661288668
 20
-944.0729516954054
 30
0.0
 10
819.1729096801895
 20
-915.8007755957026
 30
0.0
 10
823.656012435145
 20
-906.3842961058692
 30
0.0
 10
829.4916596776097
 20
-894.8073972372357
 30
0.0
 10
830.4602482732878
 20
-883.7017874309843
 30
0.0
 10
831.2877602088448
 20
-874.2174395600915
 30
0.0
 10
828.8867009103999
 20
-868.7731551647512
 30
0.0
 10
821.6421818692422
 20
-867.8288544922442
 30
0.0
 10
806.146486886137
 20
-865.8093395187908
 30
0.0
 10
790.9903060631032
 20
-873.5249753675563
 30
0.0
 10
780.3723495227889
 20
-876.2944876281487
 30
0.0
 10
780.011475770709
 20
-883.5763859553213
 30
0.0
 10
778.6165566087313
 20
-889.8237221082733
 30
0.0
 10
778.2558551114256
 20
-897.1059649449944
 30
0.0
 10
794.8155678351503
 20
-892.3035018385561
 30
0.0
 10
789.0167831143777
 20
-910.6066051325914
 30
0.0
 10
785.6633271690356
 20
-919.3282088630499
 30
0.0
 10
780.7923066624409
 20
-931.9958249623136
 30
0.0
 10
774.4550535173238
 20
-943.5076115262759
 30
0.0
 10
768.3792831195371
 20
-954.2487302301879
 30
0.0
 10
767.1741887187968
 20
-956.3791772782664
 30
0.0
 10
765.9258583697165
 20
-959.3884681846321
 30
0.0
 10
763.44108325098
 20
-959.8924856541241
 30
0.0
 10
761.4928817540713
 20
-938.4877628947183
 30
0.0
 10
759.1223115506708
 20
-913.7671357307596
 30
0.0
 10
756.0336111933701
 20
-891.8149872987477
 30
0.0
  0
SPLINE
  5
43
330
1F
100
AcDbEntity
  8
Layer 1
370
     0
100
AcDbSpline
210
0.0
220
0.0
230
1.0
 70
    11
 71
     3
 72
    80
 73
    76
 74
     0
 42
0.0000000001
 43
0.0000000001
 40
0.0
 40
0.0
 40
0.0
 40
0.0
 40
1.0
 40
1.0
 40
1.0
 40
2.0
 40
2.0
 40
2.0
 40
3.0
 40
3.0
 40
3.0
 40
4.0
 40
4.0
 40
4.0
 40
5.0
 40
5.0
 40
5.0
 40
6.0
 40
6.0
 40
6.0
 40
7.0
 40
7.0
 40
7.0
 40
8.0
 40
8.0
 40
8.0
 40
9.0
 40
9.0
 40
9.0
 40
10.0
 40
10.0
 40
10.0
 40
11.0
 40
11.0
 40
11.0
 40
12.0
 40
12.0
 40
12.0
 40
13.0
 40
13.0
 40
13.0
 40
14.0
 40
14.0
 40
14.0
 40
15.0
 40
15.0
 40
15.0
 40
16.0
 40
16.0
 40
16.0
 40
17.0
 40
17.0
 40
17.0
 40
18.0
 40
18.0
 40
18.0
 40
19.0
 40
19.0
 40
19.0
 40
20.0
 40
20.0
 40
20.0
 40
21.0
 40
21.0
 40
21.0
 40
22.0
 40
22.0
 40
22.0
 40
23.0
 40
23.0
 40
23.0
 40
24.0
 40
24.0
 40
24.0
 40
25.0
 40
25.0
 40
25.0
 40
25.0
 10
1085.134108886703
 20
-868.8871878253129
 30
0.0
 10
1081.936715766842
 20
-866.6795706383649
 30
0.0
 10
1077.476006132541
 20
-866.8008379994457
 30
0.0
 10
1072.43583143762
 20
-867.123298936865
 30
0.0
 10
1052.841850865262
 20
-868.376624674399
 30
0.0
 10
1033.060457098506
 20
-877.1716089386932
 30
0.0
 10
1019.525710465605
 20
-883.3490096532947
 30
0.0
 10
1018.807752566479
 20
-891.2141626461201
 30
0.0
 10
1017.98058514047
 20
-898.9704506216116
 30
0.0
 10
1017.056610531326
 20
-906.629586904419
 30
0.0
 10
1022.658335790342
 20
-906.0852618177496
 30
0.0
 10
1029.674961765151
 20
-900.4483965847837
 30
0.0
 10
1036.456976737413
 20
-903.4552759243098
 30
0.0
 10
1041.61256213109
 20
-905.7407522692246
 30
0.0
 10
1039.401844358205
 20
-920.2680309114261
 30
0.0
 10
1038.926076671692
 20
-927.7934974894058
 30
0.0
 10
1037.244181055793
 20
-954.3882565973405
 30
0.0
 10
1033.342265909199
 20
-982.3090329575477
 30
0.0
 10
1029.754887980409
 20
-1004.336628980687
 30
0.0
 10
1045.914108353973
 20
-1000.272449836737
 30
0.0
 10
1062.296226405433
 20
-996.4315128802324
 30
0.0
 10
1080.195909018146
 20
-994.107451465883
 30
0.0
 10
1080.074641657065
 20
-975.2262611494226
 30
0.0
 10
1081.951529677429
 20
-956.1769501732822
 30
0.0
 10
1083.370564507803
 20
-938.3754527818992
 30
0.0
 10
1083.830140245536
 20
-932.6104299968822
 30
0.0
 10
1083.571069065045
 20
-925.1014998772316
 30
0.0
 10
1085.134108886703
 20
-920.3861976865702
 30
0.0
 10
1086.499055717959
 20
-916.268964072148
 30
0.0
 10
1093.348939071281
 20
-911.6291094726135
 30
0.0
 10
1097.127175289954
 20
-909.0986868386976
 30
0.0
 10
1101.389447424305
 20
-906.2444252291681
 30
0.0
 10
1108.692016324389
 20
-901.6562470619124
 30
0.0
 10
1114.410874829904
 20
-903.4552759243098
 30
0.0
 10
1122.486867666427
 20
-905.995000316036
 30
0.0
 10
1117.85459227696
 20
-926.0068709707552
 30
0.0
 10
1116.880319273731
 20
-934.4955862464109
 30
0.0
 10
1115.097137850566
 20
-950.0274547321112
 30
0.0
 10
1113.883086201564
 20
-962.1445445728319
 30
0.0
 10
1112.294552673315
 20
-977.176185194074
 30
0.0
 10
1110.881029995717
 20
-990.5524574346535
 30
0.0
 10
1109.902278368358
 20
-1001.196079936333
 30
0.0
 10
1122.171296919978
 20
-1002.573429111336
 30
0.0
 10
1132.627161717711
 20
-1003.746828633612
 30
0.0
 10
1143.045819484204
 20
-1001.129245083919
 30
0.0
 10
1152.153618418559
 20
-999.04565133444
 30
0.0
 10
1161.55183890232
 20
-996.8959117516441
 30
0.0
 10
1170.787450879178
 20
-994.619392654991
 30
0.0
 10
1176.844962270893
 20
-989.874807152705
 30
0.0
 10
1178.199573815693
 20
-982.4113522934597
 30
0.0
 10
1178.916153676625
 20
-974.3091767312492
 30
0.0
 10
1180.019617760551
 20
-966.5942299015807
 30
0.0
 10
1175.154798425829
 20
-967.4761743458046
 30
0.0
 10
1168.856474859696
 20
-974.624058458601
 30
0.0
 10
1162.382795933363
 20
-971.5324297701378
 30
0.0
 10
1158.127069480434
 20
-969.5005124529374
 30
0.0
 10
1159.659103442724
 20
-956.3557506289667
 30
0.0
 10
1160.266473776774
 20
-950.7212969628406
 30
0.0
 10
1162.073770868336
 20
-933.9505721406443
 30
0.0
 10
1163.874177768927
 20
-923.1805146346563
 30
0.0
 10
1165.91022920071
 20
-906.9823646821086
 30
0.0
 10
1166.862798102381
 20
-899.4024655954619
 30
0.0
 10
1168.618763271213
 20
-891.1459497555122
 30
0.0
 10
1168.026551357299
 20
-884.4073429863635
 30
0.0
 10
1167.161487880953
 20
-874.5633271468106
 30
0.0
 10
1161.258661276526
 20
-868.0204018012241
 30
0.0
 10
1152.506396196248
 20
-867.123298936865
 30
0.0
 10
1138.84487004949
 20
-865.7239011507565
 30
0.0
 10
1125.122365712643
 20
-870.4919133023424
 30
0.0
 10
1114.763652607594
 20
-875.2364988046285
 30
0.0
 10
1103.785166824748
 20
-880.2649601748991
 30
0.0
 10
1094.845488550073
 20
-887.7160126903974
 30
0.0
 10
1087.250431043292
 20
-893.2257538999575
 30
0.0
 10
1087.953575031831
 20
-885.056054466236
 30
0.0
 10
1091.099291719413
 20
-873.0057994779291
 30
0.0
 10
1085.134108886703
 20
-868.8871878253129
 30
0.0
  0
SPLINE
  5
44
330
1F
100
AcDbEntity
  8
Layer 1
370
     0
100
AcDbSpline
210
0.0
220
0.0
230
1.0
 70
    11
 71
     3
 72
    23
 73
    19
 74
     0
 42
0.0000000001
 43
0.0000000001
 40
0.0
 40
0.0
 40
0.0
 40
0.0
 40
1.0
 40
1.0
 40
1.0
 40
2.0
 40
2.0
 40
2.0
 40
3.0
 40
3.0
 40
3.0
 40
4.0
 40
4.0
 40
4.0
 40
5.0
 40
5.0
 40
5.0
 40
6.0
 40
6.0
 40
6.0
 40
6.0
 10
1470.671988564624
 20
-897.1059649449944
 30
0.0
 10
1469.083110526826
 20
-875.2640595685104
 30
0.0
 10
1451.577891347175
 20
-867.7620196398303
 30
0.0
 10
1427.991389616961
 20
-867.123298936865
 30
0.0
 10
1426.637467091257
 20
-875.5286429017776
 30
0.0
 10
1426.35428024237
 20
-885.0047225435057
 30
0.0
 10
1425.169511904992
 20
-893.5785316776471
 30
0.0
 10
1431.772726421571
 20
-894.2468802017855
 30
0.0
 10
1432.758368239901
 20
-903.3319415059378
 30
0.0
 10
1432.224033930139
 20
-909.4514646163872
 30
0.0
 10
1431.094731630074
 20
-922.3846975775635
 30
0.0
 10
1421.18319191901
 20
-930.6164087300195
 30
0.0
 10
1407.179912300115
 20
-930.2629419332329
 30
0.0
 10
1406.983197347907
 20
-937.5072887196163
 30
0.0
 10
1406.172910889776
 20
-944.266221552128
 30
0.0
 10
1406.827134522425
 20
-951.4268525182197
 30
0.0
 10
1443.109502134882
 20
-951.4220293845403
 30
0.0
 10
1473.335736393819
 20
-933.7231958386178
 30
0.0
 10
1470.671988564624
 20
-897.1059649449944
 30
0.0
  0
SPLINE
  5
45
330
1F
100
AcDbEntity
  8
Layer 1
370
     0
100
AcDbSpline
210
0.0
220
0.0
230
1.0
 70
    11
 71
     3
 72
    47
 73
    43
 74
     0
 42
0.0000000001
 43
0.0000000001
 40
0.0
 40
0.0
 40
0.0
 40
0.0
 40
1.0
 40
1.0
 40
1.0
 40
2.0
 40
2.0
 40
2.0
 40
3.0
 40
3.0
 40
3.0
 40
4.0
 40
4.0
 40
4.0
 40
5.0
 40
5.0
 40
5.0
 40
6.0
 40
6.0
 40
6.0
 40
7.0
 40
7.0
 40
7.0
 40
8.0
 40
8.0
 40
8.0
 40
9.0
 40
9.0
 40
9.0
 40
10.0
 40
10.0
 40
10.0
 40
11.0
 40
11.0
 40
11.0
 40
12.0
 40
12.0
 40
12.0
 40
13.0
 40
13.0
 40
13.0
 40
14.0
 40
14.0
 40
14.0
 40
14.0
 10
1281.959648659545
 20
-867.8288544922442
 30
0.0
 10
1254.864661687152
 20
-869.4005070526152
 30
0.0
 10
1239.598065553816
 20
-877.7996498456542
 30
0.0
 10
1226.93320553094
 20
-894.2837427234778
 30
0.0
 10
1215.193698155403
 20
-909.5634302196578
 30
0.0
 10
1208.679367102344
 20
-931.7501896542153
 30
0.0
 10
1210.707494814511
 20
-959.1869300987449
 30
0.0
 10
1212.530294835756
 20
-983.8520912253912
 30
0.0
 10
1227.120618725338
 20
-998.1609508138279
 30
0.0
 10
1249.507882717137
 20
-1001.867873555957
 30
0.0
 10
1267.486458016462
 20
-1004.844436055213
 30
0.0
 10
1289.10546571505
 20
-1001.609491394563
 30
0.0
 10
1303.476337022221
 20
-996.57689590971
 30
0.0
 10
1306.50354242511
 20
-995.5164955193501
 30
0.0
 10
1315.149698564442
 20
-993.0797794826328
 30
0.0
 10
1316.880170026683
 20
-989.5220293750153
 30
0.0
 10
1318.57653504362
 20
-986.0342147057485
 30
0.0
 10
1317.808623259958
 20
-980.1234643817053
 30
0.0
 10
1318.290936627893
 20
-975.7654185928642
 30
0.0
 10
1318.815969179845
 20
-971.0239336765148
 30
0.0
 10
1319.578713320279
 20
-966.723076472729
 30
0.0
 10
1320.054825516341
 20
-962.3615855884027
 30
0.0
 10
1309.338166990374
 20
-969.3110322012486
 30
0.0
 10
1295.695244359236
 20
-977.7914792477396
 30
0.0
 10
1279.490548725266
 20
-976.1181963705538
 30
0.0
 10
1266.65550098542
 20
-974.7928681373783
 30
0.0
 10
1259.614759342214
 20
-963.7885441383931
 30
0.0
 10
1258.679071408421
 20
-950.7212969628406
 30
0.0
 10
1257.048163205703
 20
-927.940603066626
 30
0.0
 10
1262.281263247798
 20
-901.1649764457158
 30
0.0
 10
1276.668671013298
 20
-893.9309649457881
 30
0.0
 10
1291.877734052031
 20
-886.2842310067276
 30
0.0
 10
1302.044210829003
 20
-899.1116995365069
 30
0.0
 10
1300.654459310253
 20
-915.0952200403235
 30
0.0
 10
1307.664195094091
 20
-914.1095782219935
 30
0.0
 10
1315.813912973998
 20
-914.2639184997327
 30
0.0
 10
1323.229481005998
 20
-913.6844534391137
 30
0.0
 10
1324.449044807777
 20
-899.031084302152
 30
0.0
 10
1326.378642789065
 20
-885.0874048351518
 30
0.0
 10
1329.225669698076
 20
-872.0614988054222
 30
0.0
 10
1315.276133568751
 20
-867.8026717665563
 30
0.0
 10
1298.88953689316
 20
-866.847002278948
 30
0.0
 10
1281.959648659545
 20
-867.8288544922442
 30
0.0
  0
SPLINE
  5
46
330
1F
100
AcDbEntity
  8
Layer 1
370
     0
100
AcDbSpline
210
0.0
220
0.0
230
1.0
 70
    11
 71
     3
 72
    38
 73
    34
 74
     0
 42
0.0000000001
 43
0.0000000001
 40
0.0
 40
0.0
 40
0.0
 40
0.0
 40
1.0
 40
1.0
 40
1.0
 40
2.0
 40
2.0
 40
2.0
 40
3.0
 40
3.0
 40
3.0
 40
4.0
 40
4.0
 40
4.0
 40
5.0
 40
5.0
 40
5.0
 40
6.0
 40
6.0
 40
6.0
 40
7.0
 40
7.0
 40
7.0
 40
8.0
 40
8.0
 40
8.0
 40
9.0
 40
9.0
 40
9.0
 40
10.0
 40
10.0
 40
10.0
 40
11.0
 40
11.0
 40
11.0
 40
11.0
 10
514.0583725385861
 20
-935.5539195794796
 30
0.0
 10
510.9272975068168
 20
-958.0193872387938
 30
0.0
 10
512.3473658658368
 20
-981.9176701104234
 30
0.0
 10
525.3458833864587
 20
-994.813007021262
 30
0.0
 10
535.8165620947785
 20
-1005.200658928387
 30
0.0
 10
555.3330280187189
 20
-1004.295976853961
 30
0.0
 10
568.732037889501
 20
-997.2821069555406
 30
0.0
 10
572.6761554557893
 20
-995.2174612312305
 30
0.0
 10
581.4415118989104
 20
-989.8972002733591
 30
0.0
 10
582.8414264493417
 20
-985.9949406172166
 30
0.0
 10
584.1624483131608
 20
-982.3121335434845
 30
0.0
 10
583.8510116812943
 20
-977.1424232583186
 30
0.0
 10
584.2523653053258
 20
-972.9435408808961
 30
0.0
 10
584.6826577314336
 20
-968.4401120625776
 30
0.0
 10
584.7546602270753
 20
-964.0899899933526
 30
0.0
 10
585.3105263836203
 20
-959.5397078764346
 30
0.0
 10
581.241696360766
 20
-961.5702471554408
 30
0.0
 10
575.4174179334026
 20
-967.6553193110376
 30
0.0
 10
567.6738768112066
 20
-965.1834633003708
 30
0.0
 10
562.7380885094891
 20
-963.6080211349661
 30
0.0
 10
561.0205361553178
 20
-956.7074948780107
 30
0.0
 10
560.6191825312862
 20
-950.7212969628406
 30
0.0
 10
559.3455307303893
 20
-931.7250404571729
 30
0.0
 10
565.0295937715031
 20
-906.0439206719266
 30
0.0
 10
575.7867321694214
 20
-897.458742722684
 30
0.0
 10
579.5727198529368
 20
-894.4367049630229
 30
0.0
 10
585.626613894392
 20
-892.0513208490358
 30
0.0
 10
591.3068873304719
 20
-893.9309649457881
 30
0.0
 10
592.0062417139776
 20
-885.3416528819632
 30
0.0
 10
592.8518404008322
 20
-876.898412866713
 30
0.0
 10
593.7759872647505
 20
-868.5344100476234
 30
0.0
 10
544.0393159989728
 20
-863.0952932955109
 30
0.0
 10
519.8256346356686
 20
-894.1721216297556
 30
0.0
 10
514.0583725385861
 20
-935.5539195794796
 30
0.0
  0
SPLINE
  5
47
330
1F
100
AcDbEntity
  8
Layer 1
370
     0
100
AcDbSpline
210
0.0
220
0.0
230
1.0
 70
    11
 71
     3
 72
    29
 73
    25
 74
     0
 42
0.0000000001
 43
0.0000000001
 40
0.0
 40
0.0
 40
0.0
 40
0.0
 40
1.0
 40
1.0
 40
1.0
 40
2.0
 40
2.0
 40
2.0
 40
3.0
 40
3.0
 40
3.0
 40
4.0
 40
4.0
 40
4.0
 40
5.0
 40
5.0
 40
5.0
 40
6.0
 40
6.0
 40
6.0
 40
7.0
 40
7.0
 40
7.0
 40
8.0
 40
8.0
 40
8.0
 40
8.0
 10
1353.917358059958
 20
-915.8007755957026
 30
0.0
 10
1344.643850032763
 20
-944.2272919731446
 30
0.0
 10
1344.697938031881
 20
-983.7604516854835
 30
0.0
 10
1369.437513221009
 20
-996.57689590971
 30
0.0
 10
1394.343142012525
 20
-1009.479467521068
 30
0.0
 10
1438.817602179358
 20
-1002.099383972566
 30
0.0
 10
1458.67926667092
 20
-990.9331404857737
 30
0.0
 10
1459.351749309641
 20
-981.6114011217846
 30
0.0
 10
1460.123106188789
 20
-972.3885359982223
 30
0.0
 10
1460.795588827509
 20
-963.0671411437819
 30
0.0
 10
1450.279779368333
 20
-970.1943546836667
 30
0.0
 10
1423.229923146797
 20
-983.0076983219565
 30
0.0
 10
1406.474356744736
 20
-974.3546519916545
 30
0.0
 10
1393.427435632546
 20
-967.6163897320542
 30
0.0
 10
1393.907337433641
 20
-947.0433130227879
 30
0.0
 10
1396.245179229932
 20
-928.499053044785
 30
0.0
 10
1398.279163604423
 20
-912.364292849166
 30
0.0
 10
1403.184290556322
 20
-898.355156567946
 30
0.0
 10
1413.88200105712
 20
-893.5785316776471
 30
0.0
 10
1414.345021890337
 20
-885.3068574175622
 30
0.0
 10
1416.593291204011
 20
-874.7931150156768
 30
0.0
 10
1415.998323213709
 20
-867.8288544922442
 30
0.0
 10
1382.524052931279
 20
-869.8959117833941
 30
0.0
 10
1362.520450505724
 20
-889.4275361274696
 30
0.0
 10
1353.917358059958
 20
-915.8007755957026
 30
0.0
  0
SPLINE
  5
48
330
1F
100
AcDbEntity
  8
Layer 1
370
     0
100
AcDbSpline
210
0.0
220
0.0
230
1.0
 70
    11
 71
     3
 72
    38
 73
    34
 74
     0
 42
0.0000000001
 43
0.0000000001
 40
0.0
 40
0.0
 40
0.0
 40
0.0
 40
1.0
 40
1.0
 40
1.0
 40
2.0
 40
2.0
 40
2.0
 40
3.0
 40
3.0
 40
3.0
 40
4.0
 40
4.0
 40
4.0
 40
5.0
 40
5.0
 40
5.0
 40
6.0
 40
6.0
 40
6.0
 40
7.0
 40
7.0
 40
7.0
 40
8.0
 40
8.0
 40
8.0
 40
9.0
 40
9.0
 40
9.0
 40
10.0
 40
10.0
 40
10.0
 40
11.0
 40
11.0
 40
11.0
 40
11.0
 10
1497.479654573547
 20
-935.5539195794796
 30
0.0
 10
1494.348407287003
 20
-958.0193872387938
 30
0.0
 10
1495.768820155572
 20
-981.9180146199719
 30
0.0
 10
1508.767165421419
 20
-994.813007021262
 30
0.0
 10
1519.237499620191
 20
-1005.19996990929
 30
0.0
 10
1538.754999072777
 20
-1004.296665873058
 30
0.0
 10
1552.15366443401
 20
-997.2821069555406
 30
0.0
 10
1556.097954255073
 20
-995.2171167216819
 30
0.0
 10
1564.862621679097
 20
-989.8975447829076
 30
0.0
 10
1566.262708484302
 20
-985.9949406172166
 30
0.0
 10
1567.584247112444
 20
-982.3128225625816
 30
0.0
 10
1567.272810480578
 20
-977.1420787487701
 30
0.0
 10
1567.673819595061
 20
-972.9435408808961
 30
0.0
 10
1568.10376751162
 20
-968.4401120625776
 30
0.0
 10
1568.176459026359
 20
-964.0899899933526
 30
0.0
 10
1568.73215292813
 20
-959.5397078764346
 30
0.0
 10
1564.663150650501
 20
-961.5702471554408
 30
0.0
 10
1558.838872223138
 20
-967.6553193110376
 30
0.0
 10
1551.095331100942
 20
-965.1834633003708
 30
0.0
 10
1546.159542799224
 20
-963.6080211349661
 30
0.0
 10
1544.441818190279
 20
-956.7074948780107
 30
0.0
 10
1544.040464566247
 20
-950.7212969628406
 30
0.0
 10
1542.767157274899
 20
-931.7250404571729
 30
0.0
 10
1548.450531296915
 20
-906.0432316528295
 30
0.0
 10
1559.208186459156
 20
-897.458742722684
 30
0.0
 10
1562.990556792412
 20
-894.440150058508
 30
0.0
 10
1569.050479750967
 20
-892.0485647726476
 30
0.0
 10
1574.728341620207
 20
-893.9309649457881
 30
0.0
 10
1575.427696003713
 20
-885.3416528819632
 30
0.0
 10
1576.273122435793
 20
-876.898412866713
 30
0.0
 10
1577.197441554486
 20
-868.5344100476234
 30
0.0
 10
1527.460598033934
 20
-863.0952932955109
 30
0.0
 10
1503.247433434952
 20
-894.1721216297556
 30
0.0
 10
1497.479654573547
 20
-935.5539195794796
 30
0.0
  0
SPLINE
  5
49
330
1F
100
AcDbEntity
  8
Layer 1
370
     0
100
AcDbSpline
210
0.0
220
0.0
230
1.0
 70
    11
 71
     3
 72
    32
 73
    28
 74
     0
 42
0.0000000001
 43
0.0000000001
 40
0.0
 40
0.0
 40
0.0
 40
0.0
 40
1.0
 40
1.0
 40
1.0
 40
2.0
 40
2.0
 40
2.0
 40
3.0
 40
3.0
 40
3.0
 40
4.0
 40
4.0
 40
4.0
 40
5.0
 40
5.0
 40
5.0
 40
6.0
 40
6.0
 40
6.0
 40
7.0
 40
7.0
 40
7.0
 40
8.0
 40
8.0
 40
8.0
 40
9.0
 40
9.0
 40
9.0
 40
9.0
 10
411.7655638619024
 20
-919.3282088630499
 30
0.0
 10
377.2338215202749
 20
-925.3798635924398
 30
0.0
 10
338.6158514235926
 20
-933.1692244845897
 30
0.0
 10
341.9243488728522
 20
-976.1181963705538
 30
0.0
 10
342.9530543847479
 20
-989.4720754904793
 30
0.0
 10
351.4586506282812
 20
-1001.696307800791
 30
0.0
 10
367.6738538034809
 20
-1002.925862379477
 30
0.0
 10
385.7824814573738
 20
-1004.299421949446
 30
0.0
 10
395.8156330390669
 20
-996.6347735138622
 30
0.0
 10
407.1799695162606
 20
-989.874807152705
 30
0.0
 10
407.4671182249562
 20
-982.8719615598376
 30
0.0
 10
408.1807697547256
 20
-976.2956187880442
 30
0.0
 10
408.5910806270189
 20
-969.4164521230973
 30
0.0
 10
404.7213771232121
 20
-970.3335365412709
 30
0.0
 10
400.6334268204146
 20
-974.6337047259597
 30
0.0
 10
394.1289142894886
 20
-973.2963186585857
 30
0.0
 10
385.1101710734274
 20
-971.4414792493271
 30
0.0
 10
385.4074828138044
 20
-954.546730989662
 30
0.0
 10
390.9542587998309
 20
-947.8994192508724
 30
0.0
 10
395.8459498793371
 20
-942.0369002636228
 30
0.0
 10
404.1822196797704
 20
-941.7247746126591
 30
0.0
 10
411.0601805612975
 20
-940.1393416703471
 30
0.0
 10
411.2238225968468
 20
-933.4727373968402
 30
0.0
 10
413.4986191457573
 20
-925.1910723598481
 30
0.0
 10
412.118341639592
 20
-919.3282088630499
 30
0.0
 10
412.0006916287707
 20
-919.3282088630499
 30
0.0
 10
411.8832138727237
 20
-919.3282088630499
 30
0.0
 10
411.7655638619024
 20
-919.3282088630499
 30
0.0
  0
SPLINE
  5
4A
330
1F
100
AcDbEntity
  8
Layer 1
370
     0
100
AcDbSpline
210
0.0
220
0.0
230
1.0
 70
    11
 71
     3
 72
    32
 73
    28
 74
     0
 42
0.0000000001
 43
0.0000000001
 40
0.0
 40
0.0
 40
0.0
 40
0.0
 40
1.0
 40
1.0
 40
1.0
 40
2.0
 40
2.0
 40
2.0
 40
3.0
 40
3.0
 40
3.0
 40
4.0
 40
4.0
 40
4.0
 40
5.0
 40
5.0
 40
5.0
 40
6.0
 40
6.0
 40
6.0
 40
7.0
 40
7.0
 40
7.0
 40
8.0
 40
8.0
 40
8.0
 40
9.0
 40
9.0
 40
9.0
 40
9.0
 10
918.9964461678204
 20
-919.3282088630499
 30
0.0
 10
884.463498042773
 20
-925.3798635924398
 30
0.0
 10
845.8488007868017
 20
-933.1692244845897
 30
0.0
 10
849.1554034335445
 20
-976.1181963705538
 30
0.0
 10
850.183419926343
 20
-989.4720754904793
 30
0.0
 10
858.690049698522
 20
-1001.696307800791
 30
0.0
 10
874.9047361093989
 20
-1002.925862379477
 30
0.0
 10
893.0135360180661
 20
-1004.299421949446
 30
0.0
 10
903.0463430902107
 20
-996.6347735138622
 30
0.0
 10
914.4110240769528
 20
-989.874807152705
 30
0.0
 10
914.6980005308742
 20
-982.8719615598376
 30
0.0
 10
915.4114798058694
 20
-976.2956187880442
 30
0.0
 10
915.8221351877112
 20
-969.4164521230973
 30
0.0
 10
911.9526039386785
 20
-970.3335365412709
 30
0.0
 10
907.8646536358812
 20
-974.6337047259597
 30
0.0
 10
901.3599688501808
 20
-973.2963186585857
 30
0.0
 10
892.3410533793453
 20
-971.4414792493271
 30
0.0
 10
892.6387096292709
 20
-954.546730989662
 30
0.0
 10
898.1853133605232
 20
-947.8994192508724
 30
0.0
 10
903.0770044400294
 20
-942.0369002636228
 30
0.0
 10
911.4131019856884
 20
-941.7247746126591
 30
0.0
 10
918.2908906124412
 20
-940.1393416703471
 30
0.0
 10
918.454877157539
 20
-933.4727373968402
 30
0.0
 10
920.7296737064496
 20
-925.1910723598481
 30
0.0
 10
919.34922394551
 20
-919.3282088630499
 30
0.0
 10
919.2320906990115
 20
-919.3282088630499
 30
0.0
 10
919.1142684334159
 20
-919.3282088630499
 30
0.0
 10
918.9964461678204
 20
-919.3282088630499
 30
0.0
  0
SPLINE
  5
4B
330
1F
100
AcDbEntity
  8
Layer 1
370
     0
100
AcDbSpline
210
0.0
220
0.0
230
1.0
 70
    11
 71
     3
 72
    80
 73
    76
 74
     0
 42
0.0000000001
 43
0.0000000001
 40
0.0
 40
0.0
 40
0.0
 40
0.0
 40
1.0
 40
1.0
 40
1.0
 40
2.0
 40
2.0
 40
2.0
 40
3.0
 40
3.0
 40
3.0
 40
4.0
 40
4.0
 40
4.0
 40
5.0
 40
5.0
 40
5.0
 40
6.0
 40
6.0
 40
6.0
 40
7.0
 40
7.0
 40
7.0
 40
8.0
 40
8.0
 40
8.0
 40
9.0
 40
9.0
 40
9.0
 40
10.0
 40
10.0
 40
10.0
 40
11.0
 40
11.0
 40
11.0
 40
12.0
 40
12.0
 40
12.0
 40
13.0
 40
13.0
 40
13.0
 40
14.0
 40
14.0
 40
14.0
 40
15.0
 40
15.0
 40
15.0
 40
16.0
 40
16.0
 40
16.0
 40
17.0
 40
17.0
 40
17.0
 40
18.0
 40
18.0
 40
18.0
 40
19.0
 40
19.0
 40
19.0
 40
20.0
 40
20.0
 40
20.0
 40
21.0
 40
21.0
 40
21.0
 40
22.0
 40
22.0
 40
22.0
 40
23.0
 40
23.0
 40
23.0
 40
24.0
 40
24.0
 40
24.0
 40
25.0
 40
25.0
 40
25.0
 40
25.0
 10
895.7162134262446
 20
-1047.370350215588
 30
0.0
 10
896.4589760128645
 20
-1040.824324284065
 30
0.0
 10
897.9048825880238
 20
-1034.241091321301
 30
0.0
 10
897.1269800274544
 20
-1027.969984009501
 30
0.0
 10
896.1230792030526
 20
-1019.873320600066
 30
0.0
 10
890.4813908364075
 20
-1017.104497358571
 30
0.0
 10
881.2540470887143
 20
-1017.740806494697
 30
0.0
 10
861.7837454442763
 20
-1019.083360205299
 30
0.0
 10
843.6516911410837
 20
-1025.502606622965
 30
0.0
 10
827.28559278363
 20
-1030.086650675638
 30
0.0
 10
826.3326793724099
 20
-1037.716503646821
 30
0.0
 10
825.5194645831167
 20
-1045.486227494705
 30
0.0
 10
824.8164928493514
 20
-1053.366883417214
 30
0.0
 10
830.6831459511834
 20
-1052.238959155343
 30
0.0
 10
837.1594086991304
 20
-1050.032375497041
 30
0.0
 10
844.2170313102131
 20
-1051.250561260625
 30
0.0
 10
848.6434622444364
 20
-1056.190828186473
 30
0.0
 10
847.1224525876986
 20
-1064.028420415417
 30
0.0
 10
846.6861312444917
 20
-1070.650582957164
 30
0.0
 10
843.4098454380191
 20
-1120.383292363133
 30
0.0
 10
838.3328082214064
 20
-1169.867954894165
 30
0.0
 10
832.2241371617357
 20
-1215.977112868749
 30
0.0
 10
848.1573592714676
 20
-1211.216679927231
 30
0.0
 10
864.889499024229
 20
-1207.254820119193
 30
0.0
 10
882.312380421783
 20
-1203.984046465497
 30
0.0
 10
882.2331432256223
 20
-1185.169691001451
 30
0.0
 10
884.482446067942
 20
-1166.145184712804
 30
0.0
 10
885.8394691795818
 20
-1148.252047781514
 30
0.0
 10
886.2356551603856
 20
-1143.034106159554
 30
0.0
 10
885.6265622785934
 20
-1136.420900866068
 30
0.0
 10
886.8978025126506
 20
-1132.379114842773
 30
0.0
 10
888.1139212189438
 20
-1128.513028689226
 30
0.0
 10
895.487459086024
 20
-1123.945521094882
 30
0.0
 10
899.2436466935919
 20
-1121.44438177259
 30
0.0
 10
903.534168610922
 20
-1118.587019577124
 30
0.0
 10
910.3099824113115
 20
-1113.446248094034
 30
0.0
 10
916.1749129654007
 20
-1115.447848570964
 30
0.0
 10
923.2986814098003
 20
-1117.878707945357
 30
0.0
 10
919.5555851650764
 20
-1135.575474433988
 30
0.0
 10
918.6436683901308
 20
-1143.666625690646
 30
0.0
 10
917.115424032874
 20
-1157.231344654269
 30
0.0
 10
915.6150849490476
 20
-1169.963728548655
 30
0.0
 10
914.0582462992633
 20
-1183.525691435889
 30
0.0
 10
912.5141545027743
 20
-1196.977411267596
 30
0.0
 10
908.9102401156545
 20
-1212.595407140428
 30
0.0
 10
922.5238794351677
 20
-1214.213223980301
 30
0.0
 10
933.5702335990727
 20
-1215.526494379278
 30
0.0
 10
944.5463078150788
 20
-1213.230682747908
 30
0.0
 10
953.5645342668172
 20
-1211.038913000192
 30
0.0
 10
962.7842988044429
 20
-1208.798222896585
 30
0.0
 10
971.3143552259214
 20
-1205.654228756746
 30
0.0
 10
978.6086558968409
 20
-1201.515291040767
 30
0.0
 10
979.6497637524834
 20
-1193.620510226769
 30
0.0
 10
980.4166420075001
 20
-1185.451499812144
 30
0.0
 10
981.4305336088091
 20
-1177.529158234264
 30
0.0
 10
976.3255911187658
 20
-1178.797642391933
 30
0.0
 10
970.2573999310468
 20
-1183.960462486128
 30
0.0
 10
962.3826006708628
 20
-1182.467358102821
 30
0.0
 10
958.815548805435
 20
-1175.970597036737
 30
0.0
 10
961.2643226763506
 20
-1168.254272168874
 30
0.0
 10
962.0301674027216
 20
-1161.303447517834
 30
0.0
 10
963.6752004969285
 20
-1146.373781722955
 30
0.0
 10
965.1745060521092
 20
-1132.332261544174
 30
0.0
 10
966.9683672712788
 20
-1117.564515237102
 30
0.0
 10
967.8775279698363
 20
-1110.079011766751
 30
0.0
 10
969.8770613894752
 20
-1102.069853782642
 30
0.0
 10
969.0846894278677
 20
-1094.989493541357
 30
0.0
 10
968.0049965027905
 20
-1085.338403048978
 30
0.0
 10
960.8922523639436
 20
-1079.610587295202
 30
0.0
 10
951.8006453783694
 20
-1078.763782824927
 30
0.0
 10
926.5363821468382
 20
-1076.409404570308
 30
0.0
 10
903.9358667445022
 20
-1094.749714895584
 30
0.0
 10
889.3669024469292
 20
-1103.454782167713
 30
0.0
 10
891.5714190479405
 20
-1085.538907606219
 30
0.0
 10
893.6591469120019
 20
-1065.497409130327
 30
0.0
 10
895.7162134262446
 20
-1047.370350215588
 30
0.0
  0
SPLINE
  5
4C
330
1F
100
AcDbEntity
  8
Layer 1
370
     0
100
AcDbSpline
210
0.0
220
0.0
230
1.0
 70
    11
 71
     3
 72
    20
 73
    16
 74
     0
 42
0.0000000001
 43
0.0000000001
 40
0.0
 40
0.0
 40
0.0
 40
0.0
 40
1.0
 40
1.0
 40
1.0
 40
2.0
 40
2.0
 40
2.0
 40
3.0
 40
3.0
 40
3.0
 40
4.0
 40
4.0
 40
4.0
 40
5.0
 40
5.0
 40
5.0
 40
5.0
 10
1036.104198959724
 20
-1030.086650675638
 30
0.0
 10
1031.722382012035
 20
-1034.721337631945
 30
0.0
 10
1027.433238132899
 20
-1048.96508491571
 30
0.0
 10
1033.987876803135
 20
-1056.894316684561
 30
0.0
 10
1042.546183007593
 20
-1067.246828617737
 30
0.0
 10
1064.475249299853
 20
-1066.097544763858
 30
0.0
 10
1074.904931371899
 20
-1057.952305508082
 30
0.0
 10
1082.599207628656
 20
-1051.94302545316
 30
0.0
 10
1086.139732258847
 20
-1036.850406641829
 30
0.0
 10
1079.490353462766
 20
-1028.67553956488
 30
0.0
 10
1074.929391549844
 20
-1023.067957643539
 30
0.0
 10
1065.852942984405
 20
-1021.24343507455
 30
0.0
 10
1055.151787388122
 20
-1022.326228585564
 30
0.0
 10
1046.801564950973
 20
-1023.170965998548
 30
0.0
 10
1040.872900130407
 20
-1025.042341866135
 30
0.0
 10
1036.104198959724
 20
-1030.086650675638
 30
0.0
  0
SPLINE
  5
4D
330
1F
100
AcDbEntity
  8
Layer 1
370
     0
100
AcDbSpline
210
0.0
220
0.0
230
1.0
 70
    11
 71
     3
 72
    53
 73
    49
 74
     0
 42
0.0000000001
 43
0.0000000001
 40
0.0
 40
0.0
 40
0.0
 40
0.0
 40
1.0
 40
1.0
 40
1.0
 40
2.0
 40
2.0
 40
2.0
 40
3.0
 40
3.0
 40
3.0
 40
4.0
 40
4.0
 40
4.0
 40
5.0
 40
5.0
 40
5.0
 40
6.0
 40
6.0
 40
6.0
 40
7.0
 40
7.0
 40
7.0
 40
8.0
 40
8.0
 40
8.0
 40
9.0
 40
9.0
 40
9.0
 40
10.0
 40
10.0
 40
10.0
 40
11.0
 40
11.0
 40
11.0
 40
12.0
 40
12.0
 40
12.0
 40
13.0
 40
13.0
 40
13.0
 40
14.0
 40
14.0
 40
14.0
 40
15.0
 40
15.0
 40
15.0
 40
16.0
 40
16.0
 40
16.0
 40
16.0
 10
647.7444415698347
 20
-1182.467358102821
 30
0.0
 10
643.1783120136846
 20
-1180.571177547739
 30
0.0
 10
643.6985214319574
 20
-1170.1166907882
 30
0.0
 10
644.2170083024874
 20
-1163.419425164874
 30
0.0
 10
644.8359197064126
 20
-1155.428181677289
 30
0.0
 10
645.7225150295416
 20
-1148.266517182552
 30
0.0
 10
646.3335027138506
 20
-1142.255514579888
 30
0.0
 10
647.9444293627535
 20
-1126.400496137671
 30
0.0
 10
653.8238293178808
 20
-1098.029445797541
 30
0.0
 10
644.569786080177
 20
-1087.934627006662
 30
0.0
 10
637.117700036033
 20
-1079.805579699667
 30
0.0
 10
615.738298728444
 20
-1075.656306697232
 30
0.0
 10
598.7143593880819
 20
-1077.705449491858
 30
0.0
 10
577.2505532411041
 20
-1080.289271105796
 30
0.0
 10
554.8639782684021
 20
-1080.691658258473
 30
0.0
 10
537.3387775349362
 20
-1089.345738117421
 30
0.0
 10
536.404812148885
 20
-1099.581805823195
 30
0.0
 10
535.760407038369
 20
-1110.10726154973
 30
0.0
 10
534.1641220452784
 20
-1119.680492884142
 30
0.0
 10
542.190850016362
 20
-1120.355042580154
 30
0.0
 10
551.3420571538312
 20
-1119.904424090684
 30
0.0
 10
559.9137992306813
 20
-1120.033270661832
 30
0.0
 10
563.0948281469867
 20
-1113.645374613082
 30
0.0
 10
565.225102940291
 20
-1108.840155430255
 30
0.0
 10
571.2011378237796
 20
-1104.865893278471
 30
0.0
 10
576.6249239009827
 20
-1101.258878305415
 30
0.0
 10
589.8191228451668
 20
-1097.982592498942
 30
0.0
 10
597.3034205320978
 20
-1102.397137853741
 30
0.0
 10
605.0626368387517
 20
-1106.97291367725
 30
0.0
 10
602.580962305952
 20
-1123.166929515215
 30
0.0
 10
601.53623710005
 20
-1135.20133706429
 30
0.0
 10
600.2674084328324
 20
-1149.816121131817
 30
0.0
 10
598.9196870790028
 20
-1164.739585754822
 30
0.0
 10
597.6561983097873
 20
-1179.293047122711
 30
0.0
 10
596.9761364609991
 20
-1187.12719425617
 30
0.0
 10
595.5279905737743
 20
-1194.947561007687
 30
0.0
 10
596.2450871990291
 20
-1201.86737979936
 30
0.0
 10
597.0891355929152
 20
-1210.008829450102
 30
0.0
 10
602.4143919392402
 20
-1213.581393468306
 30
0.0
 10
610.0018702359545
 20
-1214.213223980301
 30
0.0
 10
631.0143688743644
 20
-1215.962643467711
 30
0.0
 10
650.9650890842206
 20
-1208.237361351587
 30
0.0
 10
665.3810911422485
 20
-1201.86737979936
 30
0.0
 10
665.8120725874533
 20
-1193.83272810866
 30
0.0
 10
666.5022974679231
 20
-1186.057836617548
 30
0.0
 10
666.7920299982326
 20
-1177.881936011953
 30
0.0
 10
662.1886934108418
 20
-1178.588869605526
 30
0.0
 10
655.001190699965
 20
-1185.481127633317
 30
0.0
 10
647.7444415698347
 20
-1182.467358102821
 30
0.0
  0
SPLINE
  5
4E
330
1F
100
AcDbEntity
  8
Layer 1
370
     0
100
AcDbSpline
210
0.0
220
0.0
230
1.0
 70
    11
 71
     3
 72
    74
 73
    70
 74
     0
 42
0.0000000001
 43
0.0000000001
 40
0.0
 40
0.0
 40
0.0
 40
0.0
 40
1.0
 40
1.0
 40
1.0
 40
2.0
 40
2.0
 40
2.0
 40
3.0
 40
3.0
 40
3.0
 40
4.0
 40
4.0
 40
4.0
 40
5.0
 40
5.0
 40
5.0
 40
6.0
 40
6.0
 40
6.0
 40
7.0
 40
7.0
 40
7.0
 40
8.0
 40
8.0
 40
8.0
 40
9.0
 40
9.0
 40
9.0
 40
10.0
 40
10.0
 40
10.0
 40
11.0
 40
11.0
 40
11.0
 40
12.0
 40
12.0
 40
12.0
 40
13.0
 40
13.0
 40
13.0
 40
14.0
 40
14.0
 40
14.0
 40
15.0
 40
15.0
 40
15.0
 40
16.0
 40
16.0
 40
16.0
 40
17.0
 40
17.0
 40
17.0
 40
18.0
 40
18.0
 40
18.0
 40
19.0
 40
19.0
 40
19.0
 40
20.0
 40
20.0
 40
20.0
 40
21.0
 40
21.0
 40
21.0
 40
22.0
 40
22.0
 40
22.0
 40
23.0
 40
23.0
 40
23.0
 40
23.0
 10
1651.624595398726
 20
-1101.691582298362
 30
0.0
 10
1650.178344314018
 20
-1093.90980061628
 30
0.0
 10
1648.218429492459
 20
-1081.694181044681
 30
0.0
 10
1642.100628929753
 20
-1079.116560602617
 30
0.0
 10
1639.207782250788
 20
-1077.896996800838
 30
0.0
 10
1635.729958358429
 20
-1078.19327501257
 30
0.0
 10
1632.57666246078
 20
-1078.411005047237
 30
0.0
 10
1623.920515544541
 20
-1079.007695585283
 30
0.0
 10
1615.135522057154
 20
-1081.658352051634
 30
0.0
 10
1607.532885340304
 20
-1084.760316026553
 30
0.0
 10
1600.293706197149
 20
-1087.713451876509
 30
0.0
 10
1593.224714770965
 20
-1090.932549097927
 30
0.0
 10
1588.132174624668
 20
-1095.342271319046
 30
0.0
 10
1587.262288014643
 20
-1102.585240067236
 30
0.0
 10
1586.732087819463
 20
-1110.167206211174
 30
0.0
 10
1586.368630245769
 20
-1117.917293014792
 30
0.0
 10
1589.819237883795
 20
-1117.052574047994
 30
0.0
 10
1593.732521845491
 20
-1112.65318711333
 30
0.0
 10
1599.419685472541
 20
-1113.683959682517
 30
0.0
 10
1605.848578157566
 20
-1114.849779994725
 30
0.0
 10
1608.437222905182
 20
-1128.464108333335
 30
0.0
 10
1610.354418542724
 20
-1135.20133706429
 30
0.0
 10
1617.631149226669
 20
-1160.767390660329
 30
0.0
 10
1622.660988635133
 20
-1190.197463352624
 30
0.0
 10
1627.638462592222
 20
-1215.27155731337
 30
0.0
 10
1632.929440238469
 20
-1215.27155731337
 30
0.0
 10
1638.220417884716
 20
-1215.27155731337
 30
0.0
 10
1643.511395530963
 20
-1215.27155731337
 30
0.0
 10
1632.30553344609
 20
-1231.001174279923
 30
0.0
 10
1618.683970406961
 20
-1245.786835083519
 30
0.0
 10
1604.358229850647
 20
-1257.952156261033
 30
0.0
 10
1602.472384582021
 20
-1259.554125661674
 30
0.0
 10
1599.098602573316
 20
-1260.952834428685
 30
0.0
 10
1599.066907694851
 20
-1263.948689462659
 30
0.0
 10
1614.735546471316
 20
-1267.563283645783
 30
0.0
 10
1629.938752847724
 20
-1271.642965719416
 30
0.0
 10
1643.864173308652
 20
-1277.000089198979
 30
0.0
 10
1659.905571416621
 20
-1249.657055351648
 30
0.0
 10
1676.136449776278
 20
-1221.798635219724
 30
0.0
 10
1692.894083235631
 20
-1188.463891304447
 30
0.0
 10
1704.040345168608
 20
-1166.291945780476
 30
0.0
 10
1716.412716584786
 20
-1142.76883380719
 30
0.0
 10
1724.993071400349
 20
-1117.211737459412
 30
0.0
 10
1727.800135201731
 20
-1108.849801697614
 30
0.0
 10
1732.049315973238
 20
-1098.087323401694
 30
0.0
 10
1730.636826824285
 20
-1088.287404784352
 30
0.0
 10
1729.195054363708
 20
-1078.286981609769
 30
0.0
 10
1720.250897464903
 20
-1077.64205973493
 30
0.0
 10
1709.120138461609
 20
-1078.763782824927
 30
0.0
 10
1695.255007171672
 20
-1080.161113553745
 30
0.0
 10
1683.993334539939
 20
-1083.945206434743
 30
0.0
 10
1674.552050362612
 20
-1088.640182562041
 30
0.0
 10
1674.240958240294
 20
-1095.737079261656
 30
0.0
 10
1671.986487754747
 20
-1102.769897185245
 30
0.0
 10
1672.435728206023
 20
-1109.451315369339
 30
0.0
 10
1675.344077814671
 20
-1108.289629171712
 30
0.0
 10
1679.465790053224
 20
-1106.688348790168
 30
0.0
 10
1683.017683498517
 20
-1108.04020425858
 30
0.0
 10
1689.391454655777
 20
-1110.467618537487
 30
0.0
 10
1686.279499903951
 20
-1123.206892622844
 30
0.0
 10
1684.781227877416
 20
-1129.204803862664
 30
0.0
 10
1679.963606350843
 20
-1148.493893484578
 30
0.0
 10
1672.904261192017
 20
-1162.76416800358
 30
0.0
 10
1666.086417226708
 20
-1178.587491567332
 30
0.0
 10
1664.753854293013
 20
-1181.679809274893
 30
0.0
 10
1664.219864492799
 20
-1185.881447728703
 30
0.0
 10
1661.148217358151
 20
-1187.405557971378
 30
0.0
 10
1658.695309372653
 20
-1158.752698820555
 30
0.0
 10
1656.681995571073
 20
-1128.903013498156
 30
0.0
 10
1651.624595398726
 20
-1101.691582298362
 30
0.0
  0
SPLINE
  5
4F
330
1F
100
AcDbEntity
  8
Layer 1
370
     0
100
AcDbSpline
210
0.0
220
0.0
230
1.0
 70
    11
 71
     3
 72
   104
 73
   100
 74
     0
 42
0.0000000001
 43
0.0000000001
 40
0.0
 40
0.0
 40
0.0
 40
0.0
 40
1.0
 40
1.0
 40
1.0
 40
2.0
 40
2.0
 40
2.0
 40
3.0
 40
3.0
 40
3.0
 40
4.0
 40
4.0
 40
4.0
 40
5.0
 40
5.0
 40
5.0
 40
6.0
 40
6.0
 40
6.0
 40
7.0
 40
7.0
 40
7.0
 40
8.0
 40
8.0
 40
8.0
 40
9.0
 40
9.0
 40
9.0
 40
10.0
 40
10.0
 40
10.0
 40
11.0
 40
11.0
 40
11.0
 40
12.0
 40
12.0
 40
12.0
 40
13.0
 40
13.0
 40
13.0
 40
14.0
 40
14.0
 40
14.0
 40
15.0
 40
15.0
 40
15.0
 40
16.0
 40
16.0
 40
16.0
 40
17.0
 40
17.0
 40
17.0
 40
18.0
 40
18.0
 40
18.0
 40
19.0
 40
19.0
 40
19.0
 40
20.0
 40
20.0
 40
20.0
 40
21.0
 40
21.0
 40
21.0
 40
22.0
 40
22.0
 40
22.0
 40
23.0
 40
23.0
 40
23.0
 40
24.0
 40
24.0
 40
24.0
 40
25.0
 40
25.0
 40
25.0
 40
26.0
 40
26.0
 40
26.0
 40
27.0
 40
27.0
 40
27.0
 40
28.0
 40
28.0
 40
28.0
 40
29.0
 40
29.0
 40
29.0
 40
30.0
 40
30.0
 40
30.0
 40
31.0
 40
31.0
 40
31.0
 40
32.0
 40
32.0
 40
32.0
 40
33.0
 40
33.0
 40
33.0
 40
33.0
 10
323.229538222144
 20
-1081.232538249657
 30
0.0
 10
320.6217731945841
 20
-1078.62528998642
 30
0.0
 10
315.3609401338334
 20
-1078.406181913558
 30
0.0
 10
310.1783107405978
 20
-1078.763782824927
 30
0.0
 10
300.5337659296409
 20
-1079.427997234483
 30
0.0
 10
291.403057110309
 20
-1082.31567627022
 30
0.0
 10
282.312311398606
 20
-1085.465871581932
 30
0.0
 10
273.5688313118162
 20
-1088.495488551661
 30
0.0
 10
265.0918293608104
 20
-1091.452758516199
 30
0.0
 10
259.3846841799455
 20
-1095.695049096736
 30
0.0
 10
258.5466647031585
 20
-1102.96971272339
 30
0.0
 10
257.9380885856891
 20
-1110.473819709361
 30
0.0
 10
257.6209675462719
 20
-1118.270070792481
 30
0.0
 10
262.3409206158384
 20
-1117.468052563515
 30
0.0
 10
269.8309027103201
 20
-1112.117130255825
 30
0.0
 10
275.2576171186856
 20
-1115.447848570964
 30
0.0
 10
279.7482990837088
 20
-1118.204613978261
 30
0.0
 10
277.5019245725516
 20
-1132.971671266236
 30
0.0
 10
277.0213337523593
 20
-1140.139536932847
 30
0.0
 10
275.2608899593966
 20
-1166.39598766413
 30
0.0
 10
271.6633489989244
 20
-1193.477194254582
 30
0.0
 10
269.2610839170598
 20
-1216.329890646438
 30
0.0
 10
283.9301282384793
 20
-1211.716218772592
 30
0.0
 10
299.5693114485452
 20
-1208.071996768295
 30
0.0
 10
316.527449465139
 20
-1205.747935353945
 30
0.0
 10
316.544502687791
 20
-1180.809578155319
 30
0.0
 10
319.7494750177189
 20
-1156.081371781292
 30
0.0
 10
321.8184271113857
 20
-1132.026337065084
 30
0.0
 10
325.1260632867741
 20
-1128.298054730946
 30
0.0
 10
327.9500080560334
 20
-1124.662789974911
 30
0.0
 10
332.4005546586533
 20
-1121.091603994901
 30
0.0
 10
335.4358560359327
 20
-1118.655921486829
 30
0.0
 10
342.2485323580142
 20
-1113.24643255589
 30
0.0
 10
347.9208820744781
 20
-1114.742293015585
 30
0.0
 10
350.8819416440504
 20
-1115.52364067164
 30
0.0
 10
352.3836587660708
 20
-1120.612735722451
 30
0.0
 10
352.5063041653457
 20
-1124.971470530389
 30
0.0
 10
352.9018011270524
 20
-1139.021258938335
 30
0.0
 10
350.2780164054861
 20
-1155.551516095661
 30
0.0
 10
348.6262653750831
 20
-1171.179847254948
 30
0.0
 10
346.9180147787219
 20
-1187.342168214449
 30
0.0
 10
345.4669405603346
 20
-1203.062138913644
 30
0.0
 10
343.3352877288363
 20
-1216.329890646438
 30
0.0
 10
358.2696044026201
 20
-1211.745846593765
 30
0.0
 10
374.1542506660101
 20
-1208.112648895021
 30
0.0
 10
391.3070365775205
 20
-1205.747935353945
 30
0.0
 10
390.987159461715
 20
-1180.074394778766
 30
0.0
 10
394.2865274079388
 20
-1155.485370262344
 30
0.0
 10
396.9507920014568
 20
-1131.673559287394
 30
0.0
 10
400.053617250247
 20
-1127.557359201618
 30
0.0
 10
403.2990694521266
 20
-1124.379603126023
 30
0.0
 10
407.8855250716397
 20
-1120.738826217211
 30
0.0
 10
411.0334810712868
 20
-1118.240442971308
 30
0.0
 10
417.7417710001653
 20
-1112.942575134091
 30
0.0
 10
423.4058524874645
 20
-1115.095070793275
 30
0.0
 10
430.7526908645341
 20
-1117.887665193618
 30
0.0
 10
426.8902220612462
 20
-1136.479467489318
 30
0.0
 10
425.8749524217431
 20
-1145.077736801404
 30
0.0
 10
424.1019340302593
 20
-1160.091462926123
 30
0.0
 10
422.1115301136562
 20
-1173.550761967897
 30
0.0
 10
420.5839747754964
 20
-1188.463891304447
 30
0.0
 10
419.8706677552754
 20
-1195.427807318331
 30
0.0
 10
418.3777356267424
 20
-1205.76309377408
 30
0.0
 10
421.2893580761013
 20
-1209.980579667123
 30
0.0
 10
426.8471583676806
 20
-1218.030389777958
 30
0.0
 10
451.3362751150306
 20
-1213.574503277336
 30
0.0
 10
460.7956460436553
 20
-1211.391690777881
 30
0.0
 10
470.0626083894288
 20
-1209.252975500638
 30
0.0
 10
478.0712496092149
 20
-1205.55983314045
 30
0.0
 10
485.1342121182998
 20
-1201.86737979936
 30
0.0
 10
485.8220254319299
 20
-1193.619821207672
 30
0.0
 10
487.137190633424
 20
-1185.998580975202
 30
0.0
 10
487.956089830268
 20
-1177.881936011953
 30
0.0
 10
484.0624429128386
 20
-1178.546839440606
 30
0.0
 10
476.7059582684103
 20
-1185.740198813808
 30
0.0
 10
469.9664902253903
 20
-1182.467358102821
 30
0.0
 10
465.9750025961799
 20
-1180.529147382819
 30
0.0
 10
467.1842311115026
 20
-1168.968095953418
 30
0.0
 10
467.8501680688014
 20
-1162.361780850903
 30
0.0
 10
469.4958901821052
 20
-1146.035473346304
 30
0.0
 10
470.8863307199521
 20
-1134.818931465427
 30
0.0
 10
472.7883679373585
 20
-1119.680492884142
 30
0.0
 10
473.6968396168189
 20
-1112.453371575185
 30
0.0
 10
475.3665051437452
 20
-1104.925837939914
 30
0.0
 10
475.2574678716371
 20
-1098.163804521466
 30
0.0
 10
475.0726384988534
 20
-1086.67854519274
 30
0.0
 10
469.0225340624319
 20
-1079.661574708383
 30
0.0
 10
459.3845349328969
 20
-1078.763782824927
 30
0.0
 10
431.8187756624446
 20
-1076.195119631125
 30
0.0
 10
414.5476507210159
 20
-1095.520038246085
 30
0.0
 10
399.0671141580457
 20
-1103.807559945402
 30
0.0
 10
400.3130329402863
 20
-1089.172794324061
 30
0.0
 10
394.8375704308045
 20
-1080.064650880157
 30
0.0
 10
383.8995645199105
 20
-1078.763782824927
 30
0.0
 10
358.4509886799185
 20
-1075.736921931587
 30
0.0
 10
337.9984903126358
 20
-1094.494088810578
 30
0.0
 10
324.6403048233538
 20
-1103.807559945402
 30
0.0
 10
324.6976656631832
 20
-1096.026467282417
 30
0.0
 10
327.855267930189
 20
-1085.858612467251
 30
0.0
 10
323.229538222144
 20
-1081.232538249657
 30
0.0
  0
SPLINE
  5
50
330
1F
100
AcDbEntity
  8
Layer 1
370
     0
100
AcDbSpline
210
0.0
220
0.0
230
1.0
 70
    11
 71
     3
 72
    47
 73
    43
 74
     0
 42
0.0000000001
 43
0.0000000001
 40
0.0
 40
0.0
 40
0.0
 40
0.0
 40
1.0
 40
1.0
 40
1.0
 40
2.0
 40
2.0
 40
2.0
 40
3.0
 40
3.0
 40
3.0
 40
4.0
 40
4.0
 40
4.0
 40
5.0
 40
5.0
 40
5.0
 40
6.0
 40
6.0
 40
6.0
 40
7.0
 40
7.0
 40
7.0
 40
8.0
 40
8.0
 40
8.0
 40
9.0
 40
9.0
 40
9.0
 40
10.0
 40
10.0
 40
10.0
 40
11.0
 40
11.0
 40
11.0
 40
12.0
 40
12.0
 40
12.0
 40
13.0
 40
13.0
 40
13.0
 40
14.0
 40
14.0
 40
14.0
 40
14.0
 10
1071.730275882241
 20
-1182.114580325131
 30
0.0
 10
1066.583303227278
 20
-1179.974487009694
 30
0.0
 10
1068.95800754526
 20
-1165.064113749533
 30
0.0
 10
1069.613953725652
 20
-1157.775669740938
 30
0.0
 10
1071.351315378864
 20
-1138.467287584307
 30
0.0
 10
1072.493020022675
 20
-1124.255579688554
 30
0.0
 10
1074.552153594209
 20
-1105.57144883385
 30
0.0
 10
1075.322476944711
 20
-1098.581350094278
 30
0.0
 10
1078.325566679203
 20
-1085.0062958442
 30
0.0
 10
1074.19937581652
 20
-1080.879760471968
 30
0.0
 10
1071.933192006322
 20
-1078.61357666177
 30
0.0
 10
1068.902196998399
 20
-1078.323499621912
 30
0.0
 10
1062.911864968647
 20
-1078.763782824927
 30
0.0
 10
1041.748987912306
 20
-1080.319587946066
 30
0.0
 10
1024.144894492228
 20
-1088.19438720625
 30
0.0
 10
1007.179866284663
 20
-1094.989493541357
 30
0.0
 10
1006.356488463689
 20
-1102.631404346738
 30
0.0
 10
1005.560671406596
 20
-1110.301564935098
 30
0.0
 10
1005.063544128074
 20
-1118.270070792481
 30
0.0
 10
1008.666080477
 20
-1118.042694490455
 30
0.0
 10
1018.937288156724
 20
-1111.672712938228
 30
0.0
 10
1024.816688111851
 20
-1115.447848570964
 30
0.0
 10
1028.701033271471
 20
-1117.942097702285
 30
0.0
 10
1026.534068211248
 20
-1129.951011544769
 30
0.0
 10
1025.87502144492
 20
-1136.964536933641
 30
0.0
 10
1024.29613418403
 20
-1153.766267615204
 30
0.0
 10
1022.74067357244
 20
-1167.277932108354
 30
0.0
 10
1020.936821576363
 20
-1183.525691435889
 30
0.0
 10
1020.171321359541
 20
-1190.418638482777
 30
0.0
 10
1017.911338721217
 20
-1201.145976804748
 30
0.0
 10
1020.231266020984
 20
-1207.158357445606
 30
0.0
 10
1024.78430421429
 20
-1218.959187520781
 30
0.0
 10
1051.168912497624
 20
-1213.478040603749
 30
0.0
 10
1062.559087190958
 20
-1210.686135222502
 30
0.0
 10
1071.741644697343
 20
-1208.43510983244
 30
0.0
 10
1080.716118436418
 20
-1205.820282359135
 30
0.0
 10
1087.250431043292
 20
-1201.162513263077
 30
0.0
 10
1088.092756889435
 20
-1193.53851695422
 30
0.0
 10
1088.090000813047
 20
-1185.070472251475
 30
0.0
 10
1089.014319931739
 20
-1177.529158234264
 30
0.0
 10
1084.839897732262
 20
-1178.426261098623
 30
0.0
 10
1077.589694283554
 20
-1184.5509518523
 30
0.0
 10
1071.730275882241
 20
-1182.114580325131
 30
0.0
  0
SPLINE
  5
51
330
1F
100
AcDbEntity
  8
Layer 1
370
     0
100
AcDbSpline
210
0.0
220
0.0
230
1.0
 70
    11
 71
     3
 72
    80
 73
    76
 74
     0
 42
0.0000000001
 43
0.0000000001
 40
0.0
 40
0.0
 40
0.0
 40
0.0
 40
1.0
 40
1.0
 40
1.0
 40
2.0
 40
2.0
 40
2.0
 40
3.0
 40
3.0
 40
3.0
 40
4.0
 40
4.0
 40
4.0
 40
5.0
 40
5.0
 40
5.0
 40
6.0
 40
6.0
 40
6.0
 40
7.0
 40
7.0
 40
7.0
 40
8.0
 40
8.0
 40
8.0
 40
9.0
 40
9.0
 40
9.0
 40
10.0
 40
10.0
 40
10.0
 40
11.0
 40
11.0
 40
11.0
 40
12.0
 40
12.0
 40
12.0
 40
13.0
 40
13.0
 40
13.0
 40
14.0
 40
14.0
 40
14.0
 40
15.0
 40
15.0
 40
15.0
 40
16.0
 40
16.0
 40
16.0
 40
17.0
 40
17.0
 40
17.0
 40
18.0
 40
18.0
 40
18.0
 40
19.0
 40
19.0
 40
19.0
 40
20.0
 40
20.0
 40
20.0
 40
21.0
 40
21.0
 40
21.0
 40
22.0
 40
22.0
 40
22.0
 40
23.0
 40
23.0
 40
23.0
 40
24.0
 40
24.0
 40
24.0
 40
25.0
 40
25.0
 40
25.0
 40
25.0
 10
1180.019617760551
 20
-1080.526982694278
 30
0.0
 10
1176.821880131142
 20
-1078.320054526427
 30
0.0
 10
1172.36117049684
 20
-1078.441321887508
 30
0.0
 10
1167.32099580192
 20
-1078.763782824927
 30
0.0
 10
1147.727015229561
 20
-1080.017797581558
 30
0.0
 10
1127.945965972354
 20
-1088.81105929811
 30
0.0
 10
1114.410874829904
 20
-1094.989493541357
 30
0.0
 10
1113.692916930778
 20
-1102.854646534182
 30
0.0
 10
1112.866094014318
 20
-1110.610934509674
 30
0.0
 10
1111.941774895626
 20
-1118.270070792481
 30
0.0
 10
1117.543500154642
 20
-1117.725745705812
 30
0.0
 10
1124.560470638999
 20
-1112.088191453749
 30
0.0
 10
1131.342141101713
 20
-1115.095070793275
 30
0.0
 10
1136.49772649539
 20
-1117.381236157287
 30
0.0
 10
1134.287353232053
 20
-1131.908514799488
 30
0.0
 10
1133.811241035992
 20
-1139.433981377468
 30
0.0
 10
1132.129689929641
 20
-1166.028740485403
 30
0.0
 10
1128.227430273499
 20
-1193.949172336061
 30
0.0
 10
1124.640396854257
 20
-1215.977112868749
 30
0.0
 10
1140.799272718273
 20
-1211.912589215251
 30
0.0
 10
1157.181735279281
 20
-1208.071307749198
 30
0.0
 10
1175.081073382445
 20
-1205.747935353945
 30
0.0
 10
1174.960150530913
 20
-1186.866056018388
 30
0.0
 10
1176.836694041728
 20
-1167.816745042247
 30
0.0
 10
1178.255728872103
 20
-1150.015936669961
 30
0.0
 10
1178.715304609835
 20
-1144.250913884944
 30
0.0
 10
1178.456233429344
 20
-1136.741294746197
 30
0.0
 10
1180.019617760551
 20
-1132.026337065084
 30
0.0
 10
1181.384909101355
 20
-1127.908758941113
 30
0.0
 10
1188.233758926032
 20
-1123.269593360676
 30
0.0
 10
1192.012339654254
 20
-1120.738826217211
 30
0.0
 10
1196.274956298153
 20
-1117.884220098133
 30
0.0
 10
1203.577180688689
 20
-1113.296730949975
 30
0.0
 10
1209.296383703752
 20
-1115.095070793275
 30
0.0
 10
1217.372032030727
 20
-1117.634795185001
 30
0.0
 10
1212.740445660356
 20
-1137.647354858817
 30
0.0
 10
1211.765483638031
 20
-1146.136070134473
 30
0.0
 10
1209.981613195768
 20
-1161.667249601076
 30
0.0
 10
1208.768595075412
 20
-1173.785028460894
 30
0.0
 10
1207.180061547163
 20
-1188.816669082136
 30
0.0
 10
1205.766883379114
 20
-1202.189840736779
 30
0.0
 10
1204.786409204012
 20
-1212.836563824395
 30
0.0
 10
1217.056461284278
 20
-1214.213223980301
 30
0.0
 10
1227.509914515171
 20
-1215.386623502577
 30
0.0
 10
1237.93649600128
 20
-1212.76766191469
 30
0.0
 10
1247.038782782858
 20
-1210.686135222502
 30
0.0
 10
1256.437347776169
 20
-1208.536395639706
 30
0.0
 10
1265.672959753026
 20
-1206.259187523956
 30
0.0
 10
1271.730126635193
 20
-1201.515291040767
 30
0.0
 10
1273.085082689541
 20
-1194.051147162425
 30
0.0
 10
1273.801662550473
 20
-1185.949660619311
 30
0.0
 10
1274.90478212485
 20
-1178.234713789643
 30
0.0
 10
1270.039962790129
 20
-1179.116658233867
 30
0.0
 10
1263.741639223995
 20
-1186.264542346663
 30
0.0
 10
1257.268304807211
 20
-1183.1729136582
 30
0.0
 10
1253.012233844733
 20
-1181.140307321903
 30
0.0
 10
1254.544956826121
 20
-1167.99589000748
 30
0.0
 10
1255.151638141073
 20
-1162.361780850903
 30
0.0
 10
1256.958590723087
 20
-1145.586921914124
 30
0.0
 10
1258.75865311413
 20
-1134.828577732786
 30
0.0
 10
1260.79539356501
 20
-1118.622848570171
 30
0.0
 10
1261.747962466681
 20
-1111.042949483524
 30
0.0
 10
1263.504272145062
 20
-1102.785744624477
 30
0.0
 10
1262.912060231147
 20
-1096.047826874425
 30
0.0
 10
1262.046307735704
 20
-1086.203811034873
 30
0.0
 10
1256.144514659922
 20
-1079.660196670189
 30
0.0
 10
1247.391560560548
 20
-1078.763782824927
 30
0.0
 10
1233.730723432887
 20
-1077.363696019722
 30
0.0
 10
1220.007185567394
 20
-1082.131708171307
 30
0.0
 10
1209.649161481442
 20
-1086.876293673593
 30
0.0
 10
1198.671020208145
 20
-1091.905444062961
 30
0.0
 10
1189.730652914373
 20
-1099.355807559363
 30
0.0
 10
1182.13593991714
 20
-1104.865893278471
 30
0.0
 10
1182.838739396131
 20
-1096.69619384475
 30
0.0
 10
1185.984800593261
 20
-1084.645938856443
 30
0.0
 10
1180.019617760551
 20
-1080.526982694278
 30
0.0
  0
SPLINE
  5
52
330
1F
100
AcDbEntity
  8
Layer 1
370
     0
100
AcDbSpline
210
0.0
220
0.0
230
1.0
 70
    11
 71
     3
 72
    23
 73
    19
 74
     0
 42
0.0000000001
 43
0.0000000001
 40
0.0
 40
0.0
 40
0.0
 40
0.0
 40
1.0
 40
1.0
 40
1.0
 40
2.0
 40
2.0
 40
2.0
 40
3.0
 40
3.0
 40
3.0
 40
4.0
 40
4.0
 40
4.0
 40
5.0
 40
5.0
 40
5.0
 40
6.0
 40
6.0
 40
6.0
 40
6.0
 10
1427.285834061581
 20
-1108.745759813959
 30
0.0
 10
1425.696267004687
 20
-1086.904543456573
 30
0.0
 10
1408.192081353681
 20
-1079.402503527893
 30
0.0
 10
1384.60489060437
 20
-1078.763782824927
 30
0.0
 10
1383.251312588215
 20
-1087.168437770743
 30
0.0
 10
1382.968125739327
 20
-1096.644517412471
 30
0.0
 10
1381.783012892402
 20
-1105.218671056161
 30
0.0
 10
1388.387260937626
 20
-1105.887019580299
 30
0.0
 10
1389.371180208213
 20
-1114.972425394
 30
0.0
 10
1388.837879427096
 20
-1121.091603994901
 30
0.0
 10
1387.710988693871
 20
-1134.02173637014
 30
0.0
 10
1377.795659377773
 20
-1142.258270656276
 30
0.0
 10
1363.793757797072
 20
-1141.902736802198
 30
0.0
 10
1363.596698335316
 20
-1149.147083588581
 30
0.0
 10
1362.786756386734
 20
-1155.906360930642
 30
0.0
 10
1363.440980019383
 20
-1163.066647387185
 30
0.0
 10
1399.722314103195
 20
-1163.062513272602
 30
0.0
 10
1429.950615419422
 20
-1145.362990707583
 30
0.0
 10
1427.285834061581
 20
-1108.745759813959
 30
0.0
  0
SPLINE
  5
53
330
1F
100
AcDbEntity
  8
Layer 1
370
     0
100
AcDbSpline
210
0.0
220
0.0
230
1.0
 70
    11
 71
     3
 72
    62
 73
    58
 74
     0
 42
0.0000000001
 43
0.0000000001
 40
0.0
 40
0.0
 40
0.0
 40
0.0
 40
1.0
 40
1.0
 40
1.0
 40
2.0
 40
2.0
 40
2.0
 40
3.0
 40
3.0
 40
3.0
 40
4.0
 40
4.0
 40
4.0
 40
5.0
 40
5.0
 40
5.0
 40
6.0
 40
6.0
 40
6.0
 40
7.0
 40
7.0
 40
7.0
 40
8.0
 40
8.0
 40
8.0
 40
9.0
 40
9.0
 40
9.0
 40
10.0
 40
10.0
 40
10.0
 40
11.0
 40
11.0
 40
11.0
 40
12.0
 40
12.0
 40
12.0
 40
13.0
 40
13.0
 40
13.0
 40
14.0
 40
14.0
 40
14.0
 40
15.0
 40
15.0
 40
15.0
 40
16.0
 40
16.0
 40
16.0
 40
17.0
 40
17.0
 40
17.0
 40
18.0
 40
18.0
 40
18.0
 40
19.0
 40
19.0
 40
19.0
 40
19.0
 10
1518.996687445772
 20
-1084.407538248863
 30
0.0
 10
1516.783213596499
 20
-1079.554087729244
 30
0.0
 10
1510.576874079821
 20
-1078.309030220874
 30
0.0
 10
1503.476187775173
 20
-1078.763782824927
 30
0.0
 10
1484.822373760739
 20
-1079.957852920115
 30
0.0
 10
1464.458414347427
 20
-1088.766962075899
 30
0.0
 10
1452.682733469295
 20
-1094.989493541357
 30
0.0
 10
1452.250029476347
 20
-1102.67067843527
 30
0.0
 10
1450.76381528401
 20
-1111.176619188352
 30
0.0
 10
1450.918844580847
 20
-1118.270070792481
 30
0.0
 10
1455.806746055319
 20
-1116.073477911086
 30
0.0
 10
1462.556032620472
 20
-1113.956122225851
 30
0.0
 10
1469.613999741103
 20
-1115.095070793275
 30
0.0
 10
1472.2656897361
 20
-1116.780411504659
 30
0.0
 10
1473.025333290598
 20
-1119.652243101163
 30
0.0
 10
1473.141088498902
 20
-1123.208270661038
 30
0.0
 10
1473.638560286972
 20
-1138.487958157218
 30
0.0
 10
1470.983769706039
 20
-1154.835625253826
 30
0.0
 10
1469.261221963414
 20
-1170.474291699569
 30
0.0
 10
1467.510079928261
 20
-1186.369273249415
 30
0.0
 10
1465.901564846198
 20
-1201.931458575385
 30
0.0
 10
1463.264688761788
 20
-1215.977112868749
 30
0.0
 10
1478.881651105974
 20
-1211.723797982659
 30
0.0
 10
1494.84897966101
 20
-1207.819815778774
 30
0.0
 10
1512.647376466456
 20
-1205.747935353945
 30
0.0
 10
1511.573540203704
 20
-1192.120515652491
 30
0.0
 10
1513.66953629693
 20
-1174.791685361684
 30
0.0
 10
1514.763698623045
 20
-1161.656225295523
 30
0.0
 10
1515.179521648115
 20
-1156.666348994688
 30
0.0
 10
1514.950767307894
 20
-1151.262372216525
 30
0.0
 10
1516.174809733804
 20
-1147.193714448445
 30
0.0
 10
1518.150227485046
 20
-1140.628051472655
 30
0.0
 10
1523.435692978516
 20
-1134.891967489714
 30
0.0
 10
1527.814753849817
 20
-1131.320781509705
 30
0.0
 10
1533.834713700743
 20
-1126.412209462321
 30
0.0
 10
1545.401966302018
 20
-1120.582418882181
 30
0.0
 10
1554.269986590599
 20
-1123.913826216417
 30
0.0
 10
1557.555574154882
 20
-1125.147859419234
 30
0.0
 10
1557.56763198908
 20
-1128.340084895866
 30
0.0
 10
1562.030064171124
 20
-1128.852026084975
 30
0.0
 10
1564.228724109811
 20
-1122.874785418066
 30
0.0
 10
1565.452077516623
 20
-1115.4161536925
 30
0.0
 10
1566.968264039682
 20
-1106.982559944609
 30
0.0
 10
1567.997314061126
 20
-1101.259567324512
 30
0.0
 10
1571.911631551467
 20
-1089.354695365682
 30
0.0
 10
1569.79014175165
 20
-1083.349204915795
 30
0.0
 10
1567.177036826088
 20
-1075.950517851672
 30
0.0
 10
1554.513554841406
 20
-1079.724275446215
 30
0.0
 10
1548.979008944352
 20
-1082.290871582726
 30
0.0
 10
1536.167387853805
 20
-1088.232972275685
 30
0.0
 10
1528.643643823568
 20
-1098.061829695103
 30
0.0
 10
1522.170998425881
 20
-1109.098537591649
 30
0.0
 10
1520.855660969612
 20
-1111.341983771644
 30
0.0
 10
1519.966826334418
 20
-1114.849779994725
 30
0.0
 10
1517.938354112703
 20
-1115.095070793275
 30
0.0
 10
1517.014379503559
 20
-1106.027579476097
 30
0.0
 10
1523.09841813051
 20
-1093.401993541754
 30
0.0
 10
1518.996687445772
 20
-1084.407538248863
 30
0.0
  0
SPLINE
  5
54
330
1F
100
AcDbEntity
  8
Layer 1
370
     0
100
AcDbSpline
210
0.0
220
0.0
230
1.0
 70
    11
 71
     3
 72
    47
 73
    43
 74
     0
 42
0.0000000001
 43
0.0000000001
 40
0.0
 40
0.0
 40
0.0
 40
0.0
 40
1.0
 40
1.0
 40
1.0
 40
2.0
 40
2.0
 40
2.0
 40
3.0
 40
3.0
 40
3.0
 40
4.0
 40
4.0
 40
4.0
 40
5.0
 40
5.0
 40
5.0
 40
6.0
 40
6.0
 40
6.0
 40
7.0
 40
7.0
 40
7.0
 40
8.0
 40
8.0
 40
8.0
 40
9.0
 40
9.0
 40
9.0
 40
10.0
 40
10.0
 40
10.0
 40
11.0
 40
11.0
 40
11.0
 40
12.0
 40
12.0
 40
12.0
 40
13.0
 40
13.0
 40
13.0
 40
14.0
 40
14.0
 40
14.0
 40
14.0
 10
762.030144394996
 20
-1079.469338380306
 30
0.0
 10
734.9351574226031
 20
-1081.040990940677
 30
0.0
 10
719.6689057988154
 20
-1089.440133733716
 30
0.0
 10
707.0035290116172
 20
-1105.92422661154
 30
0.0
 10
695.2648829099512
 20
-1121.202536069526
 30
0.0
 10
688.7483125448268
 20
-1143.391707070923
 30
0.0
 10
690.7778182951876
 20
-1170.827069477259
 30
0.0
 10
692.6025131189501
 20
-1195.491886094356
 30
0.0
 10
707.1900809321435
 20
-1209.800745682793
 30
0.0
 10
729.5785507073623
 20
-1213.507668424922
 30
0.0
 10
747.5574705162356
 20
-1216.484919943275
 30
0.0
 10
769.1754446861784
 20
-1213.249286263528
 30
0.0
 10
783.5468327576724
 20
-1208.216690778675
 30
0.0
 10
786.5738659057871
 20
-1207.156979407412
 30
0.0
 10
795.2205388094415
 20
-1204.719918861146
 30
0.0
 10
796.9508380169082
 20
-1201.162513263077
 30
0.0
 10
798.6468585242967
 20
-1197.67469859381
 30
0.0
 10
797.8796357597315
 20
-1191.763603760219
 30
0.0
 10
798.361604618118
 20
-1187.405557971378
 30
0.0
 10
798.8861204057473
 20
-1182.66372854548
 30
0.0
 10
799.6497258200529
 20
-1178.362871341694
 30
0.0
 10
800.1253212517917
 20
-1174.002069476465
 30
0.0
 10
789.4086627258249
 20
-1180.950827070214
 30
0.0
 10
775.7659123494614
 20
-1189.431963135802
 30
0.0
 10
759.5610444607174
 20
-1187.758335749067
 30
0.0
 10
746.7253077017735
 20
-1186.432663006343
 30
0.0
 10
739.6861163515368
 20
-1175.429028026455
 30
0.0
 10
738.7497393986459
 20
-1162.361780850903
 30
0.0
 10
737.1174531577345
 20
-1139.58074244514
 30
0.0
 10
742.3529647666687
 20
-1112.804771314681
 30
0.0
 10
756.7391667487493
 20
-1105.57144883385
 30
0.0
 10
771.9480575327075
 20
-1097.924025875693
 30
0.0
 10
782.1148788192282
 20
-1110.752183424569
 30
0.0
 10
780.7249550457042
 20
-1126.735359418837
 30
0.0
 10
787.7348630843163
 20
-1125.750062110056
 30
0.0
 10
795.8844087094491
 20
-1125.904402387795
 30
0.0
 10
803.2999767414493
 20
-1125.324248308079
 30
0.0
 10
804.519712798002
 20
-1110.670879171117
 30
0.0
 10
806.448966269742
 20
-1096.727888723214
 30
0.0
 10
809.2963376883009
 20
-1083.701982693484
 30
0.0
 10
795.3468015589758
 20
-1079.443155654619
 30
0.0
 10
778.960204883385
 20
-1078.486797147913
 30
0.0
 10
762.030144394996
 20
-1079.469338380306
 30
0.0
  0
SPLINE
  5
55
330
1F
100
AcDbEntity
  8
Layer 1
370
     0
100
AcDbSpline
210
0.0
220
0.0
230
1.0
 70
    11
 71
     3
 72
    29
 73
    25
 74
     0
 42
0.0000000001
 43
0.0000000001
 40
0.0
 40
0.0
 40
0.0
 40
0.0
 40
1.0
 40
1.0
 40
1.0
 40
2.0
 40
2.0
 40
2.0
 40
3.0
 40
3.0
 40
3.0
 40
4.0
 40
4.0
 40
4.0
 40
5.0
 40
5.0
 40
5.0
 40
6.0
 40
6.0
 40
6.0
 40
7.0
 40
7.0
 40
7.0
 40
8.0
 40
8.0
 40
8.0
 40
8.0
 10
1310.530859047367
 20
-1127.440914974216
 30
0.0
 10
1301.256662001075
 20
-1155.867775861207
 30
0.0
 10
1301.312472547936
 20
-1195.401624592643
 30
0.0
 10
1326.051358717966
 20
-1208.216690778675
 30
0.0
 10
1350.958710057226
 20
-1221.119262390033
 30
0.0
 10
1395.430069638122
 20
-1213.739867860628
 30
0.0
 10
1415.29276765833
 20
-1202.572935354739
 30
0.0
 10
1415.96525029705
 20
-1193.251885009847
 30
0.0
 10
1416.736607176198
 20
-1184.028675376736
 30
0.0
 10
1417.409089814919
 20
-1174.706936012747
 30
0.0
 10
1406.892246827096
 20
-1181.833460533535
 30
0.0
 10
1379.846180210594
 20
-1194.649215738664
 30
0.0
 10
1363.088202241693
 20
-1185.99444686062
 30
0.0
 10
1350.041281129504
 20
-1179.256529110568
 30
0.0
 10
1350.521182930599
 20
-1158.68379691085
 30
0.0
 10
1352.859024726889
 20
-1140.139536932847
 30
0.0
 10
1354.893009101381
 20
-1124.004087718131
 30
0.0
 10
1359.79813605328
 20
-1109.994951436911
 30
0.0
 10
1370.495846554077
 20
-1105.218671056161
 30
0.0
 10
1370.958867387295
 20
-1096.946996796076
 30
0.0
 10
1373.206792191421
 20
-1086.43325439419
 30
0.0
 10
1372.612168710667
 20
-1079.469338380306
 30
0.0
 10
1339.135142351848
 20
-1081.537084690553
 30
0.0
 10
1319.135329531327
 20
-1101.067330996435
 30
0.0
 10
1310.530859047367
 20
-1127.440914974216
 30
0.0
  0
SPLINE
  5
56
330
1F
100
AcDbEntity
  8
Layer 1
370
     0
100
AcDbSpline
210
0.0
220
0.0
230
1.0
 70
    11
 71
     3
 72
    32
 73
    28
 74
     0
 42
0.0000000001
 43
0.0000000001
 40
0.0
 40
0.0
 40
0.0
 40
0.0
 40
1.0
 40
1.0
 40
1.0
 40
2.0
 40
2.0
 40
2.0
 40
3.0
 40
3.0
 40
3.0
 40
4.0
 40
4.0
 40
4.0
 40
5.0
 40
5.0
 40
5.0
 40
6.0
 40
6.0
 40
6.0
 40
7.0
 40
7.0
 40
7.0
 40
8.0
 40
8.0
 40
8.0
 40
9.0
 40
9.0
 40
9.0
 40
9.0
 10
588.4850096185038
 20
-1130.968003732015
 30
0.0
 10
553.9534395316506
 20
-1137.019658461405
 30
0.0
 10
515.335297180194
 20
-1144.809708372652
 30
0.0
 10
518.6439668842279
 20
-1187.758335749067
 30
0.0
 10
519.6726723961235
 20
-1201.112214868993
 30
0.0
 10
528.1780963848826
 20
-1213.336102669756
 30
0.0
 10
544.3934718148565
 20
-1214.566001757991
 30
0.0
 10
562.5020994687495
 20
-1215.939216818411
 30
0.0
 10
572.5350787956684
 20
-1208.275257401924
 30
0.0
 10
583.8995875276362
 20
-1201.515291040767
 30
0.0
 10
584.1867362363319
 20
-1194.512100938351
 30
0.0
 10
584.9003877661013
 20
-1187.936102676106
 30
0.0
 10
585.3105263836203
 20
-1181.056246992062
 30
0.0
 10
581.4411673893619
 20
-1181.973331410236
 30
0.0
 10
577.352872577016
 20
-1186.274188614022
 30
0.0
 10
570.8485323008642
 20
-1184.936802546648
 30
0.0
 10
561.8299613395773
 20
-1183.081274118292
 30
0.0
 10
562.1269285704058
 20
-1166.187214877724
 30
0.0
 10
567.6738768112066
 20
-1159.539558629386
 30
0.0
 10
572.5655678907128
 20
-1153.677384151685
 30
0.0
 10
580.9016654363718
 20
-1153.364569481624
 30
0.0
 10
587.7794540631246
 20
-1151.779825558409
 30
0.0
 10
587.9434406082225
 20
-1145.112876775354
 30
0.0
 10
590.218237157133
 20
-1136.830867228813
 30
0.0
 10
588.8377873961933
 20
-1130.968003732015
 30
0.0
 10
588.7203096401463
 20
-1130.968003732015
 30
0.0
 10
588.6028318840994
 20
-1130.968003732015
 30
0.0
 10
588.4850096185038
 20
-1130.968003732015
 30
0.0
  0
SPLINE
  5
57
330
1F
100
AcDbEntity
  8
Layer 1
370
     0
100
AcDbSpline
210
0.0
220
0.0
230
1.0
 70
     8
 71
     3
 72
    17
 73
    13
 74
     0
 42
0.0000000001
 43
0.0000000001
 40
0.0
 40
0.0
 40
0.0
 40
0.0
 40
1.0
 40
1.0
 40
1.0
 40
2.0
 40
2.0
 40
2.0
 40
3.0
 40
3.0
 40
3.0
 40
4.0
 40
4.0
 40
4.0
 40
4.0
 10
219.5259629442505
 20
-1350.368220691054
 30
0.0
 10
739.4721759219028
 20
-1350.368220691054
 30
0.0
 10
1258.253257606444
 20
-1350.368220691054
 30
0.0
 10
1778.255970150054
 20
-1350.368220691054
 30
0.0
 10
1779.593700726977
 20
-1350.451247492248
 30
0.0
 10
1780.372292306643
 20
-1350.368909710151
 30
0.0
 10
1780.372292306643
 20
-1350.368909710151
 30
0.0
 10
1780.370914268449
 20
-1341.680723405899
 30
0.0
 10
1780.370914268449
 20
-1330.127251186565
 30
0.0
 10
1780.372636816192
 20
-1321.79735481278
 30
0.0
 10
1260.426079328991
 20
-1321.79735481278
 30
0.0
 10
739.5281587235381
 20
-1321.79735481278
 30
0.0
 10
219.5259629442505
 20
-1321.79735481278
 30
0.0
  0
SPLINE
  5
58
330
1F
100
AcDbEntity
  8
Layer 1
370
     0
100
AcDbSpline
210
0.0
220
0.0
230
1.0
 70
    11
 71
     3
 72
    32
 73
    28
 74
     0
 42
0.0000000001
 43
0.0000000001
 40
0.0
 40
0.0
 40
0.0
 40
0.0
 40
1.0
 40
1.0
 40
1.0
 40
2.0
 40
2.0
 40
2.0
 40
3.0
 40
3.0
 40
3.0
 40
4.0
 40
4.0
 40
4.0
 40
5.0
 40
5.0
 40
5.0
 40
6.0
 40
6.0
 40
6.0
 40
7.0
 40
7.0
 40
7.0
 40
8.0
 40
8.0
 40
8.0
 40
9.0
 40
9.0
 40
9.0
 40
9.0
 10
1563.441175281883
 20
-1414.566197020491
 30
0.0
 10
1562.43520740019
 20
-1423.319495629413
 30
0.0
 10
1561.539138064476
 20
-1432.182348274767
 30
0.0
 10
1560.971730838056
 20
-1441.373863029414
 30
0.0
 10
1564.707592382261
 20
-1439.662339592341
 30
0.0
 10
1567.984222698282
 20
-1438.253295538874
 30
0.0
 10
1572.964797241307
 20
-1436.788440938546
 30
0.0
 10
1576.387155096355
 20
-1435.781784037756
 30
0.0
 10
1583.455112993893
 20
-1433.078073100932
 30
0.0
 10
1587.074185801148
 20
-1434.671774272409
 30
0.0
 10
1592.491253942155
 20
-1437.057847405493
 30
0.0
 10
1590.000794415868
 20
-1453.586726524624
 30
0.0
 10
1589.543285735427
 20
-1461.479440281332
 30
0.0
 10
1587.86793580095
 20
-1490.380346307092
 30
0.0
 10
1584.006672781082
 20
-1520.137014051389
 30
0.0
 10
1579.314108220623
 20
-1543.313549418859
 30
0.0
 10
1597.90177640174
 20
-1541.442862570369
 30
0.0
 10
1617.206024443789
 20
-1540.28875558281
 30
0.0
 10
1637.515206838885
 20
-1540.13923843875
 30
0.0
 10
1636.676326088227
 20
-1490.239786411294
 30
0.0
 10
1642.511973330691
 20
-1440.985256258677
 30
0.0
 10
1649.155150954899
 20
-1396.223819637923
 30
0.0
 10
1647.665147157528
 20
-1395.127590254517
 30
0.0
 10
1646.473144119632
 20
-1393.733015602088
 30
0.0
 10
1644.569728864031
 20
-1393.049508657814
 30
0.0
 10
1619.237252741892
 20
-1401.932342856982
 30
0.0
 10
1592.579448386577
 20
-1409.488815294329
 30
0.0
 10
1563.441175281883
 20
-1414.566197020491
 30
0.0
  0
SPLINE
  5
59
330
1F
100
AcDbEntity
  8
Layer 1
370
     0
100
AcDbSpline
210
0.0
220
0.0
230
1.0
 70
    11
 71
     3
 72
    32
 73
    28
 74
     0
 42
0.0000000001
 43
0.0000000001
 40
0.0
 40
0.0
 40
0.0
 40
0.0
 40
1.0
 40
1.0
 40
1.0
 40
2.0
 40
2.0
 40
2.0
 40
3.0
 40
3.0
 40
3.0
 40
4.0
 40
4.0
 40
4.0
 40
5.0
 40
5.0
 40
5.0
 40
6.0
 40
6.0
 40
6.0
 40
7.0
 40
7.0
 40
7.0
 40
8.0
 40
8.0
 40
8.0
 40
9.0
 40
9.0
 40
9.0
 40
9.0
 10
1672.435728206023
 20
-1414.566197020491
 30
0.0
 10
1671.430104833879
 20
-1423.319495629413
 30
0.0
 10
1670.534035498165
 20
-1432.182348274767
 30
0.0
 10
1669.966628271745
 20
-1441.373863029414
 30
0.0
 10
1673.70248981595
 20
-1439.662339592341
 30
0.0
 10
1676.978775622422
 20
-1438.253295538874
 30
0.0
 10
1681.959350165448
 20
-1436.788440938546
 30
0.0
 10
1685.381708020495
 20
-1435.781784037756
 30
0.0
 10
1692.449665918034
 20
-1433.078073100932
 30
0.0
 10
1696.068738725289
 20
-1434.671774272409
 30
0.0
 10
1701.485806866295
 20
-1437.057847405493
 30
0.0
 10
1698.995691849557
 20
-1453.586726524624
 30
0.0
 10
1698.537838659567
 20
-1461.479440281332
 30
0.0
 10
1696.862144215542
 20
-1490.380346307092
 30
0.0
 10
1693.00157021477
 20
-1520.137014051389
 30
0.0
 10
1688.308661144763
 20
-1543.313549418859
 30
0.0
 10
1706.89632932588
 20
-1541.442862570369
 30
0.0
 10
1726.200577367929
 20
-1540.28875558281
 30
0.0
 10
1746.509759763025
 20
-1540.13923843875
 30
0.0
 10
1745.670879012367
 20
-1490.239786411294
 30
0.0
 10
1751.506526254832
 20
-1440.985256258677
 30
0.0
 10
1758.150048388587
 20
-1396.223819637923
 30
0.0
 10
1756.659700081668
 20
-1395.127590254517
 30
0.0
 10
1755.467697043772
 20
-1393.733015602088
 30
0.0
 10
1753.564281788171
 20
-1393.049508657814
 30
0.0
 10
1728.232150175581
 20
-1401.932342856982
 30
0.0
 10
1701.574001310718
 20
-1409.488815294329
 30
0.0
 10
1672.435728206023
 20
-1414.566197020491
 30
0.0
  0
SPLINE
  5
5A
330
1F
100
AcDbEntity
  8
Layer 1
370
     0
100
AcDbSpline
210
0.0
220
0.0
230
1.0
 70
    11
 71
     3
 72
    50
 73
    46
 74
     0
 42
0.0000000001
 43
0.0000000001
 40
0.0
 40
0.0
 40
0.0
 40
0.0
 40
1.0
 40
1.0
 40
1.0
 40
2.0
 40
2.0
 40
2.0
 40
3.0
 40
3.0
 40
3.0
 40
4.0
 40
4.0
 40
4.0
 40
5.0
 40
5.0
 40
5.0
 40
6.0
 40
6.0
 40
6.0
 40
7.0
 40
7.0
 40
7.0
 40
8.0
 40
8.0
 40
8.0
 40
9.0
 40
9.0
 40
9.0
 40
10.0
 40
10.0
 40
10.0
 40
11.0
 40
11.0
 40
11.0
 40
12.0
 40
12.0
 40
12.0
 40
13.0
 40
13.0
 40
13.0
 40
14.0
 40
14.0
 40
14.0
 40
15.0
 40
15.0
 40
15.0
 40
15.0
 10
664.322930063954
 20
-1478.76348433083
 30
0.0
 10
674.4809663569874
 20
-1465.543274915732
 30
0.0
 10
684.1923460203582
 20
-1449.999004086285
 30
0.0
 10
682.6649629369726
 20
-1429.028018848472
 30
0.0
 10
679.39918467173
 20
-1384.187345031557
 30
0.0
 10
605.2958698031032
 20
-1393.092227841831
 30
0.0
 10
569.7901989677955
 20
-1403.278686172618
 30
0.0
 10
568.701204284908
 20
-1418.297924450113
 30
0.0
 10
566.6370753249206
 20
-1432.341511686185
 30
0.0
 10
564.8519990992385
 20
-1446.66484067566
 30
0.0
 10
572.3769489128954
 20
-1446.66484067566
 30
0.0
 10
579.9018987265523
 20
-1446.66484067566
 30
0.0
 10
587.4270207949836
 20
-1446.66484067566
 30
0.0
 10
588.3615029453575
 20
-1431.465079394738
 30
0.0
 10
597.2107474635445
 20
-1419.199161429054
 30
0.0
 10
613.5291312485275
 20
-1419.857174666737
 30
0.0
 10
625.6010903383914
 20
-1420.344311168351
 30
0.0
 10
630.159640684474
 20
-1429.841061382991
 30
0.0
 10
628.6968531414369
 20
-1442.432196362482
 30
0.0
 10
626.3684853577308
 20
-1462.471627781083
 30
0.0
 10
610.4013290574692
 20
-1478.010386457755
 30
0.0
 10
599.0671371657714
 20
-1489.345439623324
 30
0.0
 10
585.2259492894574
 20
-1503.187833283057
 30
0.0
 10
569.4870305650935
 20
-1512.52266400989
 30
0.0
 10
554.9754271073499
 20
-1521.796861056183
 30
0.0
 10
556.1421086934298
 20
-1528.272951549355
 30
0.0
 10
557.8258991118456
 20
-1534.231588700644
 30
0.0
 10
558.8554658976126
 20
-1540.844793994129
 30
0.0
 10
586.0383028048793
 20
-1539.143605843513
 30
0.0
 10
620.5733179872178
 20
-1540.139927457847
 30
0.0
 10
650.5663192818029
 20
-1540.13923843875
 30
0.0
 10
658.1954832338887
 20
-1540.13923843875
 30
0.0
 10
676.3931666060754
 20
-1541.959626893156
 30
0.0
 10
680.5486407803837
 20
-1538.728127327992
 30
0.0
 10
683.607541061737
 20
-1536.349633404975
 30
0.0
 10
685.0346718665018
 20
-1527.314525985359
 30
0.0
 10
686.19239620432
 20
-1523.207972166941
 30
0.0
 10
687.9457775515378
 20
-1516.988196777871
 30
0.0
 10
689.2295923841162
 20
-1512.069978463128
 30
0.0
 10
690.7778182951876
 20
-1506.629483672822
 30
0.0
 10
674.0072657277656
 20
-1512.081002768681
 30
0.0
 10
654.2170869675222
 20
-1514.513240181268
 30
0.0
 10
631.518730853405
 20
-1514.037127985206
 30
0.0
 10
642.3160046137266
 20
-1503.949888404395
 30
0.0
 10
653.92563188947
 20
-1492.295130377794
 30
0.0
 10
664.322930063954
 20
-1478.76348433083
 30
0.0
  0
SPLINE
  5
5B
330
1F
100
AcDbEntity
  8
Layer 1
370
     0
100
AcDbSpline
210
0.0
220
0.0
230
1.0
 70
    11
 71
     3
 72
    50
 73
    46
 74
     0
 42
0.0000000001
 43
0.0000000001
 40
0.0
 40
0.0
 40
0.0
 40
0.0
 40
1.0
 40
1.0
 40
1.0
 40
2.0
 40
2.0
 40
2.0
 40
3.0
 40
3.0
 40
3.0
 40
4.0
 40
4.0
 40
4.0
 40
5.0
 40
5.0
 40
5.0
 40
6.0
 40
6.0
 40
6.0
 40
7.0
 40
7.0
 40
7.0
 40
8.0
 40
8.0
 40
8.0
 40
9.0
 40
9.0
 40
9.0
 40
10.0
 40
10.0
 40
10.0
 40
11.0
 40
11.0
 40
11.0
 40
12.0
 40
12.0
 40
12.0
 40
13.0
 40
13.0
 40
13.0
 40
14.0
 40
14.0
 40
14.0
 40
15.0
 40
15.0
 40
15.0
 40
15.0
 10
873.493969508189
 20
-1478.76348433083
 30
0.0
 10
883.6525225655453
 20
-1465.543274915732
 30
0.0
 10
893.3628687002704
 20
-1449.999004086285
 30
0.0
 10
891.8360023812077
 20
-1429.028018848472
 30
0.0
 10
888.571429899385
 20
-1384.187345031557
 30
0.0
 10
814.4660479734669
 20
-1393.092227841831
 30
0.0
 10
778.9612384120305
 20
-1403.278686172618
 30
0.0
 10
777.8722437291431
 20
-1418.297924450113
 30
0.0
 10
775.8081147691556
 20
-1432.341511686185
 30
0.0
 10
774.0230385434735
 20
-1446.66484067566
 30
0.0
 10
781.5479883571304
 20
-1446.66484067566
 30
0.0
 10
789.0729381707873
 20
-1446.66484067566
 30
0.0
 10
796.5980602392186
 20
-1446.66484067566
 30
0.0
 10
797.5325423895925
 20
-1431.465079394738
 30
0.0
 10
806.3817869077795
 20
-1419.199161429054
 30
0.0
 10
822.7005152023111
 20
-1419.857174666737
 30
0.0
 10
834.771785273078
 20
-1420.343622149255
 30
0.0
 10
839.3311968930318
 20
-1429.841061382991
 30
0.0
 10
837.8678925856719
 20
-1442.432196362482
 30
0.0
 10
835.5388357828688
 20
-1462.471627781083
 30
0.0
 10
819.5730575208012
 20
-1478.010386457755
 30
0.0
 10
808.2381766100065
 20
-1489.345439623324
 30
0.0
 10
794.3983667718866
 20
-1503.185766225766
 30
0.0
 10
778.6573809902316
 20
-1512.523353028987
 30
0.0
 10
764.1464665515849
 20
-1521.796861056183
 30
0.0
 10
765.3131481376648
 20
-1528.272951549355
 30
0.0
 10
766.9969385560806
 20
-1534.231588700644
 30
0.0
 10
768.0265053418476
 20
-1540.844793994129
 30
0.0
 10
795.2095145038886
 20
-1539.143605843513
 30
0.0
 10
829.7443574314528
 20
-1540.139927457847
 30
0.0
 10
859.7373587260379
 20
-1540.13923843875
 30
0.0
 10
867.3665226781237
 20
-1540.13923843875
 30
0.0
 10
885.564550559859
 20
-1541.959626893156
 30
0.0
 10
889.7196802246187
 20
-1538.728127327992
 30
0.0
 10
892.7785805059721
 20
-1536.348944385878
 30
0.0
 10
894.2055390559625
 20
-1527.314525985359
 30
0.0
 10
895.363435648555
 20
-1523.207972166941
 30
0.0
 10
897.1169892505471
 20
-1516.988196777871
 30
0.0
 10
898.4006318283513
 20
-1512.069978463128
 30
0.0
 10
899.9492022489711
 20
-1506.629483672822
 30
0.0
 10
883.1784774267749
 20
-1512.081002768681
 30
0.0
 10
863.3881264117572
 20
-1514.513240181268
 30
0.0
 10
840.68977029764
 20
-1514.037127985206
 30
0.0
 10
851.4870440579616
 20
-1503.949888404395
 30
0.0
 10
863.0963268241566
 20
-1492.295130377794
 30
0.0
 10
873.493969508189
 20
-1478.76348433083
 30
0.0
  0
SPLINE
  5
5C
330
1F
100
AcDbEntity
  8
Layer 1
370
     0
100
AcDbSpline
210
0.0
220
0.0
230
1.0
 70
    11
 71
     3
 72
    50
 73
    46
 74
     0
 42
0.0000000001
 43
0.0000000001
 40
0.0
 40
0.0
 40
0.0
 40
0.0
 40
1.0
 40
1.0
 40
1.0
 40
2.0
 40
2.0
 40
2.0
 40
3.0
 40
3.0
 40
3.0
 40
4.0
 40
4.0
 40
4.0
 40
5.0
 40
5.0
 40
5.0
 40
6.0
 40
6.0
 40
6.0
 40
7.0
 40
7.0
 40
7.0
 40
8.0
 40
8.0
 40
8.0
 40
9.0
 40
9.0
 40
9.0
 40
10.0
 40
10.0
 40
10.0
 40
11.0
 40
11.0
 40
11.0
 40
12.0
 40
12.0
 40
12.0
 40
13.0
 40
13.0
 40
13.0
 40
14.0
 40
14.0
 40
14.0
 40
15.0
 40
15.0
 40
15.0
 40
15.0
 10
1019.878488243294
 20
-1478.76348433083
 30
0.0
 10
1030.036696791102
 20
-1465.542585896635
 30
0.0
 10
1039.747387435376
 20
-1449.999004086285
 30
0.0
 10
1038.220521116313
 20
-1429.028018848472
 30
0.0
 10
1034.955604124942
 20
-1384.187345031557
 30
0.0
 10
960.8516002372177
 20
-1393.092227841831
 30
0.0
 10
925.3457571471358
 20
-1403.278686172618
 30
0.0
 10
924.2567624642484
 20
-1418.297924450113
 30
0.0
 10
922.1924612494867
 20
-1432.341511686185
 30
0.0
 10
920.4075572785787
 20
-1446.66484067566
 30
0.0
 10
927.9323348374614
 20
-1446.66484067566
 30
0.0
 10
935.4574569058926
 20
-1446.66484067566
 30
0.0
 10
942.9825789743238
 20
-1446.66484067566
 30
0.0
 10
943.9168888699236
 20
-1431.465079394738
 30
0.0
 10
952.7663056428848
 20
-1419.199161429054
 30
0.0
 10
969.0846894278677
 20
-1419.857174666737
 30
0.0
 10
981.1569930272802
 20
-1420.344311168351
 30
0.0
 10
985.7148543542658
 20
-1429.841061382991
 30
0.0
 10
984.2520668112287
 20
-1442.432196362482
 30
0.0
 10
981.9245603013939
 20
-1462.470938761986
 30
0.0
 10
965.9572317463579
 20
-1478.011075476851
 30
0.0
 10
954.622867599886
 20
-1489.345439623324
 30
0.0
 10
940.7811629592492
 20
-1503.18714426396
 30
0.0
 10
925.0425887444338
 20
-1512.52266400989
 30
0.0
 10
910.5311575414645
 20
-1521.796861056183
 30
0.0
 10
911.69766687277
 20
-1528.272951549355
 30
0.0
 10
913.3816295459602
 20
-1534.231588700644
 30
0.0
 10
914.4110240769528
 20
-1540.844793994129
 30
0.0
 10
941.5938609842196
 20
-1539.143605843513
 30
0.0
 10
976.1288761665581
 20
-1540.139927457847
 30
0.0
 10
1006.121877461143
 20
-1540.13923843875
 30
0.0
 10
1013.751041413229
 20
-1540.13923843875
 30
0.0
 10
1031.948724785416
 20
-1541.959626893156
 30
0.0
 10
1036.104198959724
 20
-1538.728127327992
 30
0.0
 10
1039.163099241077
 20
-1536.349633404975
 30
0.0
 10
1040.590402300616
 20
-1527.314525985359
 30
0.0
 10
1041.74795438366
 20
-1523.207972166941
 30
0.0
 10
1043.501163476104
 20
-1516.988196777871
 30
0.0
 10
1044.785150563456
 20
-1512.069978463128
 30
0.0
 10
1046.333376474528
 20
-1506.629483672822
 30
0.0
 10
1029.562651652332
 20
-1512.081002768681
 30
0.0
 10
1009.772645146862
 20
-1514.513240181268
 30
0.0
 10
987.0742890327454
 20
-1514.037127985206
 30
0.0
 10
997.8712182835184
 20
-1503.949199385298
 30
0.0
 10
1009.48119006881
 20
-1492.295819396891
 30
0.0
 10
1019.878488243294
 20
-1478.76348433083
 30
0.0
  0
SPLINE
  5
5D
330
1F
100
AcDbEntity
  8
Layer 1
370
     0
100
AcDbSpline
210
0.0
220
0.0
230
1.0
 70
    11
 71
     3
 72
    50
 73
    46
 74
     0
 42
0.0000000001
 43
0.0000000001
 40
0.0
 40
0.0
 40
0.0
 40
0.0
 40
1.0
 40
1.0
 40
1.0
 40
2.0
 40
2.0
 40
2.0
 40
3.0
 40
3.0
 40
3.0
 40
4.0
 40
4.0
 40
4.0
 40
5.0
 40
5.0
 40
5.0
 40
6.0
 40
6.0
 40
6.0
 40
7.0
 40
7.0
 40
7.0
 40
8.0
 40
8.0
 40
8.0
 40
9.0
 40
9.0
 40
9.0
 40
10.0
 40
10.0
 40
10.0
 40
11.0
 40
11.0
 40
11.0
 40
12.0
 40
12.0
 40
12.0
 40
13.0
 40
13.0
 40
13.0
 40
14.0
 40
14.0
 40
14.0
 40
15.0
 40
15.0
 40
15.0
 40
15.0
 10
1166.2630069784
 20
-1478.76348433083
 30
0.0
 10
1176.421560035756
 20
-1465.542585896635
 30
0.0
 10
1186.131217151384
 20
-1449.999004086285
 30
0.0
 10
1184.605039851418
 20
-1429.028018848472
 30
0.0
 10
1181.341500898241
 20
-1384.187345031557
 30
0.0
 10
1107.235085443677
 20
-1393.092227841831
 30
0.0
 10
1071.730275882241
 20
-1403.278686172618
 30
0.0
 10
1070.641281199354
 20
-1418.297924450113
 30
0.0
 10
1068.576979984592
 20
-1432.341511686185
 30
0.0
 10
1066.792076013684
 20
-1446.66484067566
 30
0.0
 10
1074.316853572567
 20
-1446.66484067566
 30
0.0
 10
1081.841975640998
 20
-1446.66484067566
 30
0.0
 10
1089.367097709429
 20
-1446.66484067566
 30
0.0
 10
1090.301407605029
 20
-1431.465079394738
 30
0.0
 10
1099.15082437799
 20
-1419.199161429054
 30
0.0
 10
1115.469208162973
 20
-1419.857174666737
 30
0.0
 10
1127.541167252837
 20
-1420.344311168351
 30
0.0
 10
1132.099373089371
 20
-1429.841061382991
 30
0.0
 10
1130.636930055882
 20
-1442.432196362482
 30
0.0
 10
1128.308734526951
 20
-1462.470938761986
 30
0.0
 10
1112.341405971915
 20
-1478.011075476851
 30
0.0
 10
1101.007041825443
 20
-1489.345439623324
 30
0.0
 10
1087.165681694354
 20
-1503.18714426396
 30
0.0
 10
1071.427451989088
 20
-1512.52266400989
 30
0.0
 10
1056.915331767021
 20
-1521.796861056183
 30
0.0
 10
1058.082185607875
 20
-1528.272951549355
 30
0.0
 10
1059.765803771517
 20
-1534.231588700644
 30
0.0
 10
1060.795542812058
 20
-1540.844793994129
 30
0.0
 10
1087.978379719325
 20
-1539.143605843513
 30
0.0
 10
1122.513394901663
 20
-1540.139927457847
 30
0.0
 10
1152.506396196248
 20
-1540.13923843875
 30
0.0
 10
1160.135560148334
 20
-1540.13923843875
 30
0.0
 10
1178.333243520521
 20
-1541.959626893156
 30
0.0
 10
1182.488717694829
 20
-1538.728127327992
 30
0.0
 10
1185.547617976183
 20
-1536.349633404975
 30
0.0
 10
1186.974576526173
 20
-1527.314525985359
 30
0.0
 10
1188.132473118766
 20
-1523.207972166941
 30
0.0
 10
1189.885682211209
 20
-1516.988196777871
 30
0.0
 10
1191.169669298562
 20
-1512.069978463128
 30
0.0
 10
1192.717895209633
 20
-1506.629483672822
 30
0.0
 10
1175.947170387437
 20
-1512.081002768681
 30
0.0
 10
1156.157163881968
 20
-1514.513240181268
 30
0.0
 10
1133.458807767851
 20
-1514.037127985206
 30
0.0
 10
1144.255737018624
 20
-1503.949888404395
 30
0.0
 10
1155.865708803916
 20
-1492.295130377794
 30
0.0
 10
1166.2630069784
 20
-1478.76348433083
 30
0.0
  0
SPLINE
  5
5E
330
1F
100
AcDbEntity
  8
Layer 1
370
     0
100
AcDbSpline
210
0.0
220
0.0
230
1.0
 70
    11
 71
     3
 72
    50
 73
    46
 74
     0
 42
0.0000000001
 43
0.0000000001
 40
0.0
 40
0.0
 40
0.0
 40
0.0
 40
1.0
 40
1.0
 40
1.0
 40
2.0
 40
2.0
 40
2.0
 40
3.0
 40
3.0
 40
3.0
 40
4.0
 40
4.0
 40
4.0
 40
5.0
 40
5.0
 40
5.0
 40
6.0
 40
6.0
 40
6.0
 40
7.0
 40
7.0
 40
7.0
 40
8.0
 40
8.0
 40
8.0
 40
9.0
 40
9.0
 40
9.0
 40
10.0
 40
10.0
 40
10.0
 40
11.0
 40
11.0
 40
11.0
 40
12.0
 40
12.0
 40
12.0
 40
13.0
 40
13.0
 40
13.0
 40
14.0
 40
14.0
 40
14.0
 40
15.0
 40
15.0
 40
15.0
 40
15.0
 10
1375.081268644945
 20
-1478.76348433083
 30
0.0
 10
1385.239821702301
 20
-1465.541896877538
 30
0.0
 10
1394.949478817929
 20
-1449.999693105382
 30
0.0
 10
1393.423301517964
 20
-1429.028018848472
 30
0.0
 10
1390.160451583884
 20
-1384.187345031557
 30
0.0
 10
1316.052313581577
 20
-1393.092227841831
 30
0.0
 10
1280.548537548786
 20
-1403.278686172618
 30
0.0
 10
1279.459542865899
 20
-1418.297924450113
 30
0.0
 10
1277.395241651137
 20
-1432.341511686185
 30
0.0
 10
1275.610337680229
 20
-1446.66484067566
 30
0.0
 10
1283.135115239112
 20
-1446.66484067566
 30
0.0
 10
1290.660237307543
 20
-1446.66484067566
 30
0.0
 10
1298.185359375974
 20
-1446.66484067566
 30
0.0
 10
1299.119669271574
 20
-1431.465079394738
 30
0.0
 10
1307.969086044536
 20
-1419.199161429054
 30
0.0
 10
1324.287469829518
 20
-1419.857174666737
 30
0.0
 10
1336.359773428931
 20
-1420.344311168351
 30
0.0
 10
1340.917634755916
 20
-1429.841061382991
 30
0.0
 10
1339.455191722428
 20
-1442.432196362482
 30
0.0
 10
1337.127340703045
 20
-1462.470938761986
 30
0.0
 10
1321.160012148009
 20
-1478.011075476851
 30
0.0
 10
1309.825648001537
 20
-1489.345439623324
 30
0.0
 10
1295.983598851351
 20
-1503.18714426396
 30
0.0
 10
1280.245713655633
 20
-1512.52266400989
 30
0.0
 10
1265.733937943115
 20
-1521.796861056183
 30
0.0
 10
1266.900447274421
 20
-1528.272951549355
 30
0.0
 10
1268.584409947611
 20
-1534.231588700644
 30
0.0
 10
1269.613804478603
 20
-1540.844793994129
 30
0.0
 10
1296.79664138587
 20
-1539.143605843513
 30
0.0
 10
1331.331656568209
 20
-1540.139927457847
 30
0.0
 10
1361.324657862794
 20
-1540.13923843875
 30
0.0
 10
1368.95382181488
 20
-1540.13923843875
 30
0.0
 10
1387.151849696615
 20
-1541.959626893156
 30
0.0
 10
1391.306979361375
 20
-1538.728127327992
 30
0.0
 10
1394.365879642728
 20
-1536.348944385878
 30
0.0
 10
1395.792838192719
 20
-1527.314525985359
 30
0.0
 10
1396.950734785311
 20
-1523.207972166941
 30
0.0
 10
1398.704288387303
 20
-1516.988196777871
 30
0.0
 10
1399.987930965107
 20
-1512.069978463128
 30
0.0
 10
1401.536156876178
 20
-1506.629483672822
 30
0.0
 10
1384.765432053982
 20
-1512.081002768681
 30
0.0
 10
1364.975425548513
 20
-1514.513240181268
 30
0.0
 10
1342.277069434396
 20
-1514.037127985206
 30
0.0
 10
1353.073998685169
 20
-1503.949199385298
 30
0.0
 10
1364.683970470461
 20
-1492.295819396891
 30
0.0
 10
1375.081268644945
 20
-1478.76348433083
 30
0.0
  0
SPLINE
  5
5F
330
1F
100
AcDbEntity
  8
Layer 1
370
     0
100
AcDbSpline
210
0.0
220
0.0
230
1.0
 70
    11
 71
     3
 72
    50
 73
    46
 74
     0
 42
0.0000000001
 43
0.0000000001
 40
0.0
 40
0.0
 40
0.0
 40
0.0
 40
1.0
 40
1.0
 40
1.0
 40
2.0
 40
2.0
 40
2.0
 40
3.0
 40
3.0
 40
3.0
 40
4.0
 40
4.0
 40
4.0
 40
5.0
 40
5.0
 40
5.0
 40
6.0
 40
6.0
 40
6.0
 40
7.0
 40
7.0
 40
7.0
 40
8.0
 40
8.0
 40
8.0
 40
9.0
 40
9.0
 40
9.0
 40
10.0
 40
10.0
 40
10.0
 40
11.0
 40
11.0
 40
11.0
 40
12.0
 40
12.0
 40
12.0
 40
13.0
 40
13.0
 40
13.0
 40
14.0
 40
14.0
 40
14.0
 40
15.0
 40
15.0
 40
15.0
 40
15.0
 10
1521.46578738005
 20
-1478.76348433083
 30
0.0
 10
1531.624340437407
 20
-1465.542585896635
 30
0.0
 10
1541.333997553035
 20
-1449.999693105382
 30
0.0
 10
1539.807820253069
 20
-1429.028018848472
 30
0.0
 10
1536.544281299892
 20
-1384.187345031557
 30
0.0
 10
1462.437865845328
 20
-1393.092227841831
 30
0.0
 10
1426.933056283892
 20
-1403.278686172618
 30
0.0
 10
1425.844061601004
 20
-1418.297924450113
 30
0.0
 10
1423.779760386243
 20
-1432.341511686185
 30
0.0
 10
1421.994856415335
 20
-1446.66484067566
 30
0.0
 10
1429.519633974217
 20
-1446.66484067566
 30
0.0
 10
1437.044756042648
 20
-1446.66484067566
 30
0.0
 10
1444.56987811108
 20
-1446.66484067566
 30
0.0
 10
1445.504532516228
 20
-1431.465079394738
 30
0.0
 10
1454.353604779641
 20
-1419.199161429054
 30
0.0
 10
1470.671988564624
 20
-1419.857174666737
 30
0.0
 10
1482.742914125842
 20
-1420.343622149255
 30
0.0
 10
1487.303876038764
 20
-1429.841061382991
 30
0.0
 10
1485.839710457533
 20
-1442.432196362482
 30
0.0
 10
1483.509103361762
 20
-1462.472316800181
 30
0.0
 10
1467.545564411759
 20
-1478.009697438657
 30
0.0
 10
1456.209822227093
 20
-1489.345439623324
 30
0.0
 10
1442.369840134199
 20
-1503.185766225766
 30
0.0
 10
1426.629198862093
 20
-1512.524042048084
 30
0.0
 10
1412.118112168672
 20
-1521.796861056183
 30
0.0
 10
1413.284966009526
 20
-1528.272951549355
 30
0.0
 10
1414.968584173168
 20
-1534.231588700644
 30
0.0
 10
1415.998323213709
 20
-1540.844793994129
 30
0.0
 10
1443.181160120976
 20
-1539.143605843513
 30
0.0
 10
1477.716175303314
 20
-1540.139927457847
 30
0.0
 10
1507.709176597899
 20
-1540.13923843875
 30
0.0
 10
1515.338340549985
 20
-1540.13923843875
 30
0.0
 10
1533.536023922172
 20
-1541.959626893156
 30
0.0
 10
1537.69149809648
 20
-1538.728127327992
 30
0.0
 10
1540.750398377833
 20
-1536.348944385878
 30
0.0
 10
1542.177356927824
 20
-1527.314525985359
 30
0.0
 10
1543.335253520416
 20
-1523.207972166941
 30
0.0
 10
1545.088807122409
 20
-1516.988196777871
 30
0.0
 10
1546.372449700212
 20
-1512.069978463128
 30
0.0
 10
1547.920675611284
 20
-1506.629483672822
 30
0.0
 10
1531.149950789088
 20
-1512.081002768681
 30
0.0
 10
1511.359944283618
 20
-1514.513240181268
 30
0.0
 10
1488.661588169501
 20
-1514.037127985206
 30
0.0
 10
1499.458517420274
 20
-1503.949199385298
 30
0.0
 10
1511.068489205566
 20
-1492.295819396891
 30
0.0
 10
1521.46578738005
 20
-1478.76348433083
 30
0.0
  0
SPLINE
  5
60
330
1F
100
AcDbEntity
  8
Layer 1
370
     0
100
AcDbSpline
210
0.0
220
0.0
230
1.0
 70
    11
 71
     3
 72
    23
 73
    19
 74
     0
 42
0.0000000001
 43
0.0000000001
 40
0.0
 40
0.0
 40
0.0
 40
0.0
 40
1.0
 40
1.0
 40
1.0
 40
2.0
 40
2.0
 40
2.0
 40
3.0
 40
3.0
 40
3.0
 40
4.0
 40
4.0
 40
4.0
 40
5.0
 40
5.0
 40
5.0
 40
6.0
 40
6.0
 40
6.0
 40
6.0
 10
244.216962287036
 20
-1465.359995835917
 30
0.0
 10
240.0272094126495
 20
-1513.186189400349
 30
0.0
 10
257.2082451071389
 20
-1543.310793342471
 30
0.0
 10
303.8289997612824
 20
-1542.608682882577
 30
0.0
 10
304.241549945641
 20
-1533.967694386473
 30
0.0
 10
305.2643987952117
 20
-1525.936487791259
 30
0.0
 10
305.592716394956
 20
-1517.211438965315
 30
0.0
 10
291.0451116893915
 20
-1513.163451770147
 30
0.0
 10
292.9040852132323
 20
-1481.77656484223
 30
0.0
 10
294.657983324773
 20
-1464.654440280538
 30
0.0
 10
296.530220466232
 20
-1446.376830693093
 30
0.0
 10
300.5751070754638
 20
-1425.14677427479
 30
0.0
 10
315.1165106091549
 20
-1420.562730222116
 30
0.0
 10
316.2416787946375
 20
-1412.516365206767
 30
0.0
 10
317.0190645908841
 20
-1404.122734566504
 30
0.0
 10
317.5857827982077
 20
-1395.518264082544
 30
0.0
 10
271.8113158500159
 20
-1396.707511044052
 30
0.0
 10
248.0379176897266
 20
-1421.745086992654
 30
0.0
 10
244.216962287036
 20
-1465.359995835917
 30
0.0
  0
SPLINE
  5
61
330
1F
100
AcDbEntity
  8
Layer 1
370
     0
100
AcDbSpline
210
0.0
220
0.0
230
1.0
 70
    11
 71
     3
 72
    32
 73
    28
 74
     0
 42
0.0000000001
 43
0.0000000001
 40
0.0
 40
0.0
 40
0.0
 40
0.0
 40
1.0
 40
1.0
 40
1.0
 40
2.0
 40
2.0
 40
2.0
 40
3.0
 40
3.0
 40
3.0
 40
4.0
 40
4.0
 40
4.0
 40
5.0
 40
5.0
 40
5.0
 40
6.0
 40
6.0
 40
6.0
 40
7.0
 40
7.0
 40
7.0
 40
8.0
 40
8.0
 40
8.0
 40
9.0
 40
9.0
 40
9.0
 40
9.0
 10
328.5205158683907
 20
-1396.576597415613
 30
0.0
 10
327.8659477261933
 20
-1404.740784696558
 30
0.0
 10
327.1541909989406
 20
-1412.847094373351
 30
0.0
 10
326.4040214570275
 20
-1420.915507999806
 30
0.0
 10
339.4170083786875
 20
-1424.818801184594
 30
0.0
 10
338.1092501324866
 20
-1448.951695058769
 30
0.0
 10
337.3387545272105
 20
-1466.770417927578
 30
0.0
 10
336.6251029974409
 20
-1483.275181378313
 30
0.0
 10
333.9287990159102
 20
-1498.826342398731
 30
0.0
 10
328.873121391306
 20
-1508.04059478358
 30
0.0
 10
326.435199571169
 20
-1512.484078940455
 30
0.0
 10
322.2769693204725
 20
-1516.880709798731
 30
0.0
 10
316.527449465139
 20
-1516.858661187626
 30
0.0
 10
316.165886693962
 20
-1525.668459362507
 30
0.0
 10
315.0834376924965
 20
-1533.756854542776
 30
0.0
 10
314.7639050862396
 20
-1542.608682882577
 30
0.0
 10
362.3706460682615
 20
-1542.944924201938
 30
0.0
 10
384.8841728095949
 20
-1513.744983888057
 30
0.0
 10
388.4851588655524
 20
-1470.298195704474
 30
0.0
 10
390.5181097113983
 20
-1445.769804868592
 30
0.0
 10
387.8929469516379
 20
-1423.107277747522
 30
0.0
 10
373.6703870051067
 20
-1409.980774929623
 30
0.0
 10
363.7703883639185
 20
-1400.843692683643
 30
0.0
 10
347.1896605577339
 20
-1395.522398197126
 30
0.0
 10
328.873121391306
 20
-1395.518264082544
 30
0.0
 10
328.4621214999157
 20
-1395.578208743987
 30
0.0
 10
328.4901990281205
 20
-1396.076369551155
 30
0.0
 10
328.5205158683907
 20
-1396.576597415613
 30
0.0
  0
SPLINE
  5
62
330
1F
100
AcDbEntity
  8
Layer 1
370
     0
100
AcDbSpline
210
0.0
220
0.0
230
1.0
 70
    11
 71
     3
 72
    35
 73
    31
 74
     0
 42
0.0000000001
 43
0.0000000001
 40
0.0
 40
0.0
 40
0.0
 40
0.0
 40
1.0
 40
1.0
 40
1.0
 40
2.0
 40
2.0
 40
2.0
 40
3.0
 40
3.0
 40
3.0
 40
4.0
 40
4.0
 40
4.0
 40
5.0
 40
5.0
 40
5.0
 40
6.0
 40
6.0
 40
6.0
 40
7.0
 40
7.0
 40
7.0
 40
8.0
 40
8.0
 40
8.0
 40
9.0
 40
9.0
 40
9.0
 40
10.0
 40
10.0
 40
10.0
 40
10.0
 10
423.7584580103799
 20
-1398.69326408175
 30
0.0
 10
422.291880862309
 20
-1417.56756420724
 30
0.0
 10
419.420221520579
 20
-1435.036954393845
 30
0.0
 10
415.645602652165
 20
-1451.603040544217
 30
0.0
 10
423.7584580103799
 20
-1451.603040544217
 30
0.0
 10
431.8713133685947
 20
-1451.603040544217
 30
0.0
 10
439.9841687268095
 20
-1451.603040544217
 30
0.0
 10
441.8531330275576
 20
-1430.544549881079
 30
0.0
 10
456.2374402071212
 20
-1422.00071307766
 30
0.0
 10
481.6067788509525
 20
-1424.442596757605
 30
0.0
 10
463.8833128723105
 20
-1465.037534898498
 30
0.0
 10
445.9333318655132
 20
-1505.406474775558
 30
0.0
 10
425.5221746440535
 20
-1543.313549418859
 30
0.0
 10
447.1339476421228
 20
-1540.704234098331
 30
0.0
 10
470.2265949345267
 20
-1539.57630983646
 30
0.0
 10
493.5998452542042
 20
-1538.728127327992
 30
0.0
 10
498.4391708823347
 20
-1515.234643175879
 30
0.0
 10
507.4811684929214
 20
-1494.355297477974
 30
0.0
 10
516.174694695175
 20
-1474.178062239962
 30
0.0
 10
524.9372950619081
 20
-1453.840974571436
 30
0.0
 10
533.5844847298852
 20
-1433.982066156261
 30
0.0
 10
544.040694037167
 20
-1414.91897479818
 30
0.0
 10
541.6292994522663
 20
-1409.217341770091
 30
0.0
 10
539.0239459915462
 20
-1403.710012127371
 30
0.0
 10
536.9859997572465
 20
-1397.634930748682
 30
0.0
 10
501.2319375374524
 20
-1399.843925973824
 30
0.0
 10
460.322978943079
 20
-1399.45945331767
 30
0.0
 10
424.464013565759
 20
-1397.634930748682
 30
0.0
 10
423.9680920706573
 20
-1397.727259307686
 30
0.0
 10
424.0617986678561
 20
-1398.408010175572
 30
0.0
 10
423.7584580103799
 20
-1398.69326408175
 30
0.0
  0
SPLINE
  5
63
330
1F
100
AcDbEntity
  8
Layer 1
370
     0
100
AcDbSpline
210
0.0
220
0.0
230
1.0
 70
     8
 71
     3
 72
    17
 73
    13
 74
     0
 42
0.0000000001
 43
0.0000000001
 40
0.0
 40
0.0
 40
0.0
 40
0.0
 40
1.0
 40
1.0
 40
1.0
 40
2.0
 40
2.0
 40
2.0
 40
3.0
 40
3.0
 40
3.0
 40
4.0
 40
4.0
 40
4.0
 40
4.0
 10
219.5259629442505
 20
-1607.864303525985
 30
0.0
 10
739.4721759219028
 20
-1607.864303525985
 30
0.0
 10
1258.253257606444
 20
-1607.864303525985
 30
0.0
 10
1778.255970150054
 20
-1607.864303525985
 30
0.0
 10
1779.937521256405
 20
-1607.891519780319
 30
0.0
 10
1780.372292306643
 20
-1607.864303525985
 30
0.0
 10
1780.372292306643
 20
-1607.864303525985
 30
0.0
 10
1780.370914268449
 20
-1599.33114651857
 30
0.0
 10
1780.370914268449
 20
-1588.14113187293
 30
0.0
 10
1780.372636816192
 20
-1579.292748628614
 30
0.0
 10
1260.426079328991
 20
-1579.292748628614
 30
0.0
 10
739.5281587235381
 20
-1579.292748628614
 30
0.0
 10
219.5259629442505
 20
-1579.292748628614
 30
0.0
  0
SPLINE
  5
64
330
1F
100
AcDbEntity
  8
Layer 1
370
     0
100
AcDbSpline
210
0.0
220
0.0
230
1.0
 70
    11
 71
     3
 72
    50
 73
    46
 74
     0
 42
0.0000000001
 43
0.0000000001
 40
0.0
 40
0.0
 40
0.0
 40
0.0
 40
1.0
 40
1.0
 40
1.0
 40
2.0
 40
2.0
 40
2.0
 40
3.0
 40
3.0
 40
3.0
 40
4.0
 40
4.0
 40
4.0
 40
5.0
 40
5.0
 40
5.0
 40
6.0
 40
6.0
 40
6.0
 40
7.0
 40
7.0
 40
7.0
 40
8.0
 40
8.0
 40
8.0
 40
9.0
 40
9.0
 40
9.0
 40
10.0
 40
10.0
 40
10.0
 40
11.0
 40
11.0
 40
11.0
 40
12.0
 40
12.0
 40
12.0
 40
13.0
 40
13.0
 40
13.0
 40
14.0
 40
14.0
 40
14.0
 40
15.0
 40
15.0
 40
15.0
 40
15.0
 10
612.1183646473177
 20
-1733.437344944245
 30
0.0
 10
607.7596298393796
 20
-1729.720775934757
 30
0.0
 10
612.2053533083202
 20
-1712.864612744527
 30
0.0
 10
613.1765257256121
 20
-1707.335234490701
 30
0.0
 10
613.84969738343
 20
-1703.502221253812
 30
0.0
 10
614.5306205060896
 20
-1698.677709536268
 30
0.0
 10
615.2928478822012
 20
-1693.931056976691
 30
0.0
 10
615.9966808898376
 20
-1689.548206500356
 30
0.0
 10
617.5536917943963
 20
-1683.907207152808
 30
0.0
 10
616.3510089604956
 20
-1680.174790704088
 30
0.0
 10
613.1262273315275
 20
-1670.164032243049
 30
0.0
 10
586.6410222600238
 20
-1667.948146826937
 30
0.0
 10
572.9648544574533
 20
-1669.592835411595
 30
0.0
 10
555.1061684810152
 20
-1671.739818918003
 30
0.0
 10
538.7426539451754
 20
-1671.013592789712
 30
0.0
 10
524.2877223081642
 20
-1675.941457371813
 30
0.0
 10
524.002123892437
 20
-1682.00551444495
 30
0.0
 10
522.7484536453546
 20
-1687.100810667635
 30
0.0
 10
521.465844596196
 20
-1692.167168088243
 30
0.0
 10
527.8053370533786
 20
-1691.941858843508
 30
0.0
 10
533.3936264400023
 20
-1692.467580414557
 30
0.0
 10
539.4550996915251
 20
-1692.519945865933
 30
0.0
 10
545.5365544968624
 20
-1684.046389010412
 30
0.0
 10
556.1534775085311
 20
-1678.986921780774
 30
0.0
 10
571.5539156014692
 20
-1680.174790704088
 30
0.0
 10
576.1746499210606
 20
-1680.531013577263
 30
0.0
 10
580.7073620510038
 20
-1681.935234497051
 30
0.0
 10
582.1360431487368
 20
-1685.112990572645
 30
0.0
 10
583.8906302793746
 20
-1689.015594738336
 30
0.0
 10
582.0962522958822
 20
-1694.928067610122
 30
0.0
 10
581.4304875933577
 20
-1699.574812400627
 30
0.0
 10
579.8705483576366
 20
-1710.462003153114
 30
0.0
 10
578.2944171731348
 20
-1718.515947378531
 30
0.0
 10
576.8448932477158
 20
-1728.851922853377
 30
0.0
 10
575.1362981418063
 20
-1741.034469508318
 30
0.0
 10
574.8929021457733
 20
-1747.972891815611
 30
0.0
 10
586.7214652396044
 20
-1748.957500105295
 30
0.0
 10
601.9966741116536
 20
-1750.22942935845
 30
0.0
 10
618.5484631157623
 20
-1745.624025713768
 30
0.0
 10
630.4603975203363
 20
-1742.25541134829
 30
0.0
 10
630.4412772403932
 20
-1738.58845171379
 30
0.0
 10
631.751619308208
 20
-1734.379234049912
 30
0.0
 10
630.813175298026
 20
-1730.967900500418
 30
0.0
 10
626.7176457851609
 20
-1732.209512913302
 30
0.0
 10
616.7701048262762
 20
-1737.403338866864
 30
0.0
 10
612.1183646473177
 20
-1733.437344944245
 30
0.0
  0
SPLINE
  5
65
330
1F
100
AcDbEntity
  8
Layer 1
370
     0
100
AcDbSpline
210
0.0
220
0.0
230
1.0
 70
    11
 71
     3
 72
    95
 73
    91
 74
     0
 42
0.0000000001
 43
0.0000000001
 40
0.0
 40
0.0
 40
0.0
 40
0.0
 40
1.0
 40
1.0
 40
1.0
 40
2.0
 40
2.0
 40
2.0
 40
3.0
 40
3.0
 40
3.0
 40
4.0
 40
4.0
 40
4.0
 40
5.0
 40
5.0
 40
5.0
 40
6.0
 40
6.0
 40
6.0
 40
7.0
 40
7.0
 40
7.0
 40
8.0
 40
8.0
 40
8.0
 40
9.0
 40
9.0
 40
9.0
 40
10.0
 40
10.0
 40
10.0
 40
11.0
 40
11.0
 40
11.0
 40
12.0
 40
12.0
 40
12.0
 40
13.0
 40
13.0
 40
13.0
 40
14.0
 40
14.0
 40
14.0
 40
15.0
 40
15.0
 40
15.0
 40
16.0
 40
16.0
 40
16.0
 40
17.0
 40
17.0
 40
17.0
 40
18.0
 40
18.0
 40
18.0
 40
19.0
 40
19.0
 40
19.0
 40
20.0
 40
20.0
 40
20.0
 40
21.0
 40
21.0
 40
21.0
 40
22.0
 40
22.0
 40
22.0
 40
23.0
 40
23.0
 40
23.0
 40
24.0
 40
24.0
 40
24.0
 40
25.0
 40
25.0
 40
25.0
 40
26.0
 40
26.0
 40
26.0
 40
27.0
 40
27.0
 40
27.0
 40
28.0
 40
28.0
 40
28.0
 40
29.0
 40
29.0
 40
29.0
 40
30.0
 40
30.0
 40
30.0
 40
30.0
 10
703.1236624761289
 20
-1672.061590836325
 30
0.0
 10
701.3075803910793
 20
-1669.265551340496
 30
0.0
 10
694.6414928818953
 20
-1669.277953684243
 30
0.0
 10
689.719657216893
 20
-1669.592835411595
 30
0.0
 10
676.4419147071916
 20
-1670.44170693916
 30
0.0
 10
660.4895723175165
 20
-1675.109122302577
 30
0.0
 10
650.9190970594925
 20
-1678.058124037951
 30
0.0
 10
650.5590845812839
 20
-1681.346123169073
 30
0.0
 10
649.2778535703195
 20
-1685.584279635028
 30
0.0
 10
649.8607637264238
 20
-1688.640079330444
 30
0.0
 10
654.1772961146675
 20
-1688.210820432982
 30
0.0
 10
663.8056489768437
 20
-1683.269864488037
 30
0.0
 10
667.850191076527
 20
-1687.228968219686
 30
0.0
 10
670.2962088710544
 20
-1689.623309581935
 30
0.0
 10
668.8229137867874
 20
-1697.963196732627
 30
0.0
 10
668.2029688542167
 20
-1703.101901158426
 30
0.0
 10
666.2182493451642
 20
-1719.556366215076
 30
0.0
 10
662.6046886906856
 20
-1737.181474717614
 30
0.0
 10
659.7373357183122
 20
-1750.015833438364
 30
0.0
 10
671.0791068200775
 20
-1747.836466034395
 30
0.0
 10
682.6360241348966
 20
-1745.871383569609
 30
0.0
 10
695.0108071179139
 20
-1744.724855792118
 30
0.0
 10
695.5480697588387
 20
-1727.742602107127
 30
0.0
 10
698.4071545020475
 20
-1713.083031798292
 30
0.0
 10
700.654390287076
 20
-1697.810923512179
 30
0.0
 10
705.1759058566921
 20
-1694.926000552831
 30
0.0
 10
709.2662677263293
 20
-1692.251228418083
 30
0.0
 10
715.1165566246063
 20
-1689.698412663513
 30
0.0
 10
719.2999360723452
 20
-1687.872512056331
 30
0.0
 10
728.1047388587724
 20
-1683.82728093755
 30
0.0
 10
733.4587617523993
 20
-1686.523412664307
 30
0.0
 10
738.8096840600892
 20
-1689.218855371966
 30
0.0
 10
735.7323525178898
 20
-1698.204353416595
 30
0.0
 10
734.869528353609
 20
-1704.513012269184
 30
0.0
 10
732.6886106566716
 20
-1720.460359270406
 30
0.0
 10
729.9333955423431
 20
-1736.761862087511
 30
0.0
 10
727.4622285507734
 20
-1750.015833438364
 30
0.0
 10
738.7643810544582
 20
-1747.796502926766
 30
0.0
 10
750.4623750293983
 20
-1745.972669376875
 30
0.0
 10
762.7355276956009
 20
-1744.724855792118
 30
0.0
 10
761.9486678867698
 20
-1727.939661568883
 30
0.0
 10
765.9372271848179
 20
-1712.893551546603
 30
0.0
 10
768.0265053418476
 20
-1697.810923512179
 30
0.0
 10
772.085516842569
 20
-1695.183004676031
 30
0.0
 10
776.2168753484806
 20
-1692.428306326025
 30
0.0
 10
781.4305106010834
 20
-1690.051190441203
 30
0.0
 10
785.5765107628073
 20
-1688.160522038897
 30
0.0
 10
792.662899921192
 20
-1684.93453462651
 30
0.0
 10
798.7143823958075
 20
-1685.818546128025
 30
0.0
 10
807.1993080664294
 20
-1687.05740246452
 30
0.0
 10
803.5347599987691
 20
-1698.247761619709
 30
0.0
 10
802.2418156631549
 20
-1705.218567824563
 30
0.0
 10
800.5211627230468
 20
-1714.495520947244
 30
0.0
 10
798.9402084048656
 20
-1722.357917863681
 30
0.0
 10
797.3034435398234
 20
-1731.320678278107
 30
0.0
 10
795.5528182689937
 20
-1740.907689994461
 30
0.0
 10
794.1327499099738
 20
-1747.867816403311
 30
0.0
 10
803.2999767414493
 20
-1748.957500105295
 30
0.0
 10
819.8901785602185
 20
-1750.930850799247
 30
0.0
 10
835.2299829726162
 20
-1745.102438257301
 30
0.0
 10
847.3916867998709
 20
-1742.25541134829
 30
0.0
 10
847.7386079152355
 20
-1738.485098849233
 30
0.0
 10
849.7419309399083
 20
-1734.497056315508
 30
0.0
 10
849.1554034335445
 20
-1730.967900500418
 30
0.0
 10
845.7990191570399
 20
-1731.985581706761
 30
0.0
 10
834.9455903403087
 20
-1737.181474717614
 30
0.0
 10
831.1658038286669
 20
-1733.084567166555
 30
0.0
 10
829.4405000096538
 20
-1731.214569337162
 30
0.0
 10
830.7785750961249
 20
-1724.418084963861
 30
0.0
 10
831.5185816063565
 20
-1720.033167430235
 30
0.0
 10
833.3875459071046
 20
-1708.959941521545
 30
0.0
 10
834.7929726103122
 20
-1703.054358840729
 30
0.0
 10
836.8095592526032
 20
-1693.578279199001
 30
0.0
 10
837.754376689433
 20
-1689.139618175805
 30
0.0
 10
839.443507005851
 20
-1684.127004244767
 30
0.0
 10
838.9260536639664
 20
-1679.822012926399
 30
0.0
 10
838.1374713073927
 20
-1673.259795046095
 30
0.0
 10
831.7922944426596
 20
-1670.176434586796
 30
0.0
 10
825.5220484047306
 20
-1669.592835411595
 30
0.0
 10
803.3197860404896
 20
-1667.523711063154
 30
0.0
 10
784.5474607413631
 20
-1678.838093655811
 30
0.0
 10
770.1429997532108
 20
-1684.407435017266
 30
0.0
 10
771.3396536700124
 20
-1674.359469524987
 30
0.0
 10
764.8661469984536
 20
-1670.240513362822
 30
0.0
 10
757.0917722716646
 20
-1669.592835411595
 30
0.0
 10
736.4723590281216
 20
-1667.874421783552
 30
0.0
 10
715.0581622561314
 20
-1678.294457588239
 30
0.0
 10
702.7708846984392
 20
-1684.407435017266
 30
0.0
 10
702.994471395432
 20
-1680.491739488731
 30
0.0
 10
705.2310273844562
 20
-1675.306181764333
 30
0.0
 10
703.1236624761289
 20
-1672.061590836325
 30
0.0
  0
SPLINE
  5
66
330
1F
100
AcDbEntity
  8
Layer 1
370
     0
100
AcDbSpline
210
0.0
220
0.0
230
1.0
 70
    11
 71
     3
 72
    32
 73
    28
 74
     0
 42
0.0000000001
 43
0.0000000001
 40
0.0
 40
0.0
 40
0.0
 40
0.0
 40
1.0
 40
1.0
 40
1.0
 40
2.0
 40
2.0
 40
2.0
 40
3.0
 40
3.0
 40
3.0
 40
4.0
 40
4.0
 40
4.0
 40
5.0
 40
5.0
 40
5.0
 40
6.0
 40
6.0
 40
6.0
 40
7.0
 40
7.0
 40
7.0
 40
8.0
 40
8.0
 40
8.0
 40
9.0
 40
9.0
 40
9.0
 40
9.0
 10
943.688134529703
 20
-1683.349101684197
 30
0.0
 10
932.815757687803
 20
-1691.770982107439
 30
0.0
 10
925.1080455586535
 20
-1706.011628805268
 30
0.0
 10
926.7568682578942
 20
-1723.560945207131
 30
0.0
 10
929.9229110088388
 20
-1757.258802186553
 30
0.0
 10
990.8477021177395
 20
-1751.355286563029
 30
0.0
 10
1017.761821577157
 20
-1741.549855792911
 30
0.0
 10
1018.447395578722
 20
-1737.062274413825
 30
0.0
 10
1018.930397965754
 20
-1732.371432401109
 30
0.0
 10
1019.878488243294
 20
-1728.146367297998
 30
0.0
 10
1007.140592196132
 20
-1734.540464518622
 30
0.0
 10
979.1850203715233
 20
-1742.831431313424
 30
0.0
 10
966.9683672712788
 20
-1730.615122722728
 30
0.0
 10
955.3318682507504
 20
-1718.979657230846
 30
0.0
 10
964.3742103708856
 20
-1692.820358192246
 30
0.0
 10
975.4340004071832
 20
-1685.465768350335
 30
0.0
 10
985.6872935903838
 20
-1678.647235365929
 30
0.0
 10
1007.50990643215
 20
-1677.547216377488
 30
0.0
 10
1007.885421840043
 20
-1693.578279199001
 30
0.0
 10
1013.170198314416
 20
-1693.337122515034
 30
0.0
 10
1018.628607601246
 20
-1693.268909624426
 30
0.0
 10
1023.758354778783
 20
-1692.872723643622
 30
0.0
 10
1024.88937962659
 20
-1685.303159843431
 30
0.0
 10
1026.624329712962
 20
-1678.337176772256
 30
0.0
 10
1028.696899156888
 20
-1671.708813058635
 30
0.0
 10
997.0581757489994
 20
-1667.146817617067
 30
0.0
 10
962.8759383443505
 20
-1668.485581722636
 30
0.0
 10
943.688134529703
 20
-1683.349101684197
 30
0.0
  0
SPLINE
  5
67
330
1F
100
AcDbEntity
  8
Layer 1
370
     0
100
AcDbSpline
210
0.0
220
0.0
230
1.0
 70
    11
 71
     3
 72
    50
 73
    46
 74
     0
 42
0.0000000001
 43
0.0000000001
 40
0.0
 40
0.0
 40
0.0
 40
0.0
 40
1.0
 40
1.0
 40
1.0
 40
2.0
 40
2.0
 40
2.0
 40
3.0
 40
3.0
 40
3.0
 40
4.0
 40
4.0
 40
4.0
 40
5.0
 40
5.0
 40
5.0
 40
6.0
 40
6.0
 40
6.0
 40
7.0
 40
7.0
 40
7.0
 40
8.0
 40
8.0
 40
8.0
 40
9.0
 40
9.0
 40
9.0
 40
10.0
 40
10.0
 40
10.0
 40
11.0
 40
11.0
 40
11.0
 40
12.0
 40
12.0
 40
12.0
 40
13.0
 40
13.0
 40
13.0
 40
14.0
 40
14.0
 40
14.0
 40
15.0
 40
15.0
 40
15.0
 40
15.0
 10
1463.264688761788
 20
-1733.437344944245
 30
0.0
 10
1458.90595395385
 20
-1729.720775934757
 30
0.0
 10
1463.351849677565
 20
-1712.864612744527
 30
0.0
 10
1464.323022094857
 20
-1707.335234490701
 30
0.0
 10
1464.995849243126
 20
-1703.502221253812
 30
0.0
 10
1465.67694462056
 20
-1698.677709536268
 30
0.0
 10
1466.439344251446
 20
-1693.931056976691
 30
0.0
 10
1467.143177259082
 20
-1689.548206500356
 30
0.0
 10
1468.700015908867
 20
-1683.907207152808
 30
0.0
 10
1467.497333074966
 20
-1680.174790704088
 30
0.0
 10
1464.272723700772
 20
-1670.164032243049
 30
0.0
 10
1437.78717411972
 20
-1667.948146826937
 30
0.0
 10
1424.111178571924
 20
-1669.592835411595
 30
0.0
 10
1406.252492595486
 20
-1671.739818918003
 30
0.0
 10
1389.888978059646
 20
-1671.013592789712
 30
0.0
 10
1375.434046422635
 20
-1675.941457371813
 30
0.0
 10
1375.148448006907
 20
-1682.00551444495
 30
0.0
 10
1373.894777759825
 20
-1687.100810667635
 30
0.0
 10
1372.612168710667
 20
-1692.167168088243
 30
0.0
 10
1378.951488913075
 20
-1691.941858843508
 30
0.0
 10
1384.540122809247
 20
-1692.467580414557
 30
0.0
 10
1390.601423805996
 20
-1692.519945865933
 30
0.0
 10
1396.707855553601
 20
-1684.0491450868
 30
0.0
 10
1407.257426948533
 20
-1678.983476685289
 30
0.0
 10
1422.700067461165
 20
-1680.174790704088
 30
0.0
 10
1427.320974035531
 20
-1680.531013577263
 30
0.0
 10
1431.853686165474
 20
-1681.935234497051
 30
0.0
 10
1433.282367263207
 20
-1685.112990572645
 30
0.0
 10
1435.036954393845
 20
-1689.015594738336
 30
0.0
 10
1433.242748665127
 20
-1694.928067610122
 30
0.0
 10
1432.576811707828
 20
-1699.574812400627
 30
0.0
 10
1431.016872472107
 20
-1710.462003153114
 30
0.0
 10
1429.440396778057
 20
-1718.515947378531
 30
0.0
 10
1427.991389616961
 20
-1728.851922853377
 30
0.0
 10
1426.283311275374
 20
-1741.034469508318
 30
0.0
 10
1426.038709495921
 20
-1747.972891815611
 30
0.0
 10
1437.867789354075
 20
-1748.957500105295
 30
0.0
 10
1453.142998226124
 20
-1750.22942935845
 30
0.0
 10
1469.694614975458
 20
-1745.624025713768
 30
0.0
 10
1481.606721634807
 20
-1742.25541134829
 30
0.0
 10
1481.587429100089
 20
-1738.58845171379
 30
0.0
 10
1482.897943422678
 20
-1734.379234049912
 30
0.0
 10
1481.959499412496
 20
-1730.967900500418
 30
0.0
 10
1477.863969899631
 20
-1732.209512913302
 30
0.0
 10
1467.916256685972
 20
-1737.404027885962
 30
0.0
 10
1463.264688761788
 20
-1733.437344944245
 30
0.0
  0
SPLINE
  5
68
330
1F
100
AcDbEntity
  8
Layer 1
370
     0
100
AcDbSpline
210
0.0
220
0.0
230
1.0
 70
    11
 71
     3
 72
    26
 73
    22
 74
     0
 42
0.0000000001
 43
0.0000000001
 40
0.0
 40
0.0
 40
0.0
 40
0.0
 40
1.0
 40
1.0
 40
1.0
 40
2.0
 40
2.0
 40
2.0
 40
3.0
 40
3.0
 40
3.0
 40
4.0
 40
4.0
 40
4.0
 40
5.0
 40
5.0
 40
5.0
 40
6.0
 40
6.0
 40
6.0
 40
7.0
 40
7.0
 40
7.0
 40
7.0
 10
1039.984065495212
 20
-1722.502611874062
 30
0.0
 10
1041.821334917496
 20
-1744.559491208825
 30
0.0
 10
1062.518435064232
 20
-1748.477942813749
 30
0.0
 10
1087.250431043292
 20
-1748.957500105295
 30
0.0
 10
1088.113771971895
 20
-1745.35255218953
 30
0.0
 10
1088.685657822447
 20
-1741.45683821481
 30
0.0
 10
1089.367097709429
 20
-1737.669989257423
 30
0.0
 10
1083.349204915795
 20
-1737.09603634958
 30
0.0
 10
1079.054893393431
 20
-1734.098114258316
 30
0.0
 10
1077.021253528488
 20
-1729.910256186446
 30
0.0
 10
1069.637035865403
 20
-1714.704293733651
 30
0.0
 10
1078.839230416054
 20
-1690.714026812565
 30
0.0
 10
1090.425086532949
 20
-1684.054657239577
 30
0.0
 10
1092.988582083524
 20
-1682.581534410084
 30
0.0
 10
1095.884529348425
 20
-1681.803631849514
 30
0.0
 10
1098.185164113475
 20
-1681.23243501806
 30
0.0
 10
1098.418397077826
 20
-1677.232679159685
 30
0.0
 10
1099.467773162633
 20
-1674.049410931314
 30
0.0
 10
1099.596275224233
 20
-1669.944924170188
 30
0.0
 10
1067.509689403262
 20
-1671.405644655933
 30
0.0
 10
1037.024039454286
 20
-1686.960939790933
 30
0.0
 10
1039.984065495212
 20
-1722.502611874062
 30
0.0
  0
SPLINE
  5
69
330
1F
100
AcDbEntity
  8
Layer 1
370
     0
100
AcDbSpline
210
0.0
220
0.0
230
1.0
 70
    11
 71
     3
 72
    23
 73
    19
 74
     0
 42
0.0000000001
 43
0.0000000001
 40
0.0
 40
0.0
 40
0.0
 40
0.0
 40
1.0
 40
1.0
 40
1.0
 40
2.0
 40
2.0
 40
2.0
 40
3.0
 40
3.0
 40
3.0
 40
4.0
 40
4.0
 40
4.0
 40
5.0
 40
5.0
 40
5.0
 40
6.0
 40
6.0
 40
6.0
 40
6.0
 10
1108.767463915517
 20
-1681.58521279575
 30
0.0
 10
1118.057508401041
 20
-1681.68098645024
 30
0.0
 10
1122.269137631759
 20
-1689.681876205184
 30
0.0
 10
1122.876507965809
 20
-1698.163701289869
 30
0.0
 10
1124.174619944651
 20
-1716.289037656865
 30
0.0
 10
1116.698073722562
 20
-1736.321578884496
 30
0.0
 10
1099.949053001922
 20
-1737.669989257423
 30
0.0
 10
1099.48017550638
 20
-1741.551922850202
 30
0.0
 10
1098.932749833774
 20
-1745.354619246821
 30
0.0
 10
1098.185164113475
 20
-1748.957500105295
 30
0.0
 10
1131.586742881166
 20
-1748.231273977005
 30
0.0
 10
1160.801841615182
 20
-1732.349383790003
 30
0.0
 10
1157.091818287116
 20
-1696.400501420518
 30
0.0
 10
1154.927953812831
 20
-1675.432961278191
 30
0.0
 10
1134.557793227645
 20
-1670.155074994788
 30
0.0
 10
1110.883786072106
 20
-1669.944924170188
 30
0.0
 10
1109.917092278944
 20
-1673.564341486991
 30
0.0
 10
1109.320746250448
 20
-1677.553073039813
 30
0.0
 10
1108.767463915517
 20
-1681.58521279575
 30
0.0
  0
SPLINE
  5
6A
330
1F
100
AcDbEntity
  8
Layer 1
370
     0
100
AcDbSpline
210
0.0
220
0.0
230
1.0
 70
    11
 71
     3
 72
    41
 73
    37
 74
     0
 42
0.0000000001
 43
0.0000000001
 40
0.0
 40
0.0
 40
0.0
 40
0.0
 40
1.0
 40
1.0
 40
1.0
 40
2.0
 40
2.0
 40
2.0
 40
3.0
 40
3.0
 40
3.0
 40
4.0
 40
4.0
 40
4.0
 40
5.0
 40
5.0
 40
5.0
 40
6.0
 40
6.0
 40
6.0
 40
7.0
 40
7.0
 40
7.0
 40
8.0
 40
8.0
 40
8.0
 40
9.0
 40
9.0
 40
9.0
 40
10.0
 40
10.0
 40
10.0
 40
11.0
 40
11.0
 40
11.0
 40
12.0
 40
12.0
 40
12.0
 40
12.0
 10
1278.432215392198
 20
-1737.669989257423
 30
0.0
 10
1302.12206998697
 20
-1718.561422638936
 30
0.0
 10
1324.694680115875
 20
-1698.335956064131
 30
0.0
 10
1343.687836035606
 20
-1674.531035280152
 30
0.0
 10
1342.917857194652
 20
-1673.41964747661
 30
0.0
 10
1341.830240549959
 20
-1672.625897476809
 30
0.0
 10
1341.218736101327
 20
-1671.356035280946
 30
0.0
 10
1311.563698673845
 20
-1671.151396609122
 30
0.0
 10
1277.69358692016
 20
-1671.482814794803
 30
0.0
 10
1248.097116115927
 20
-1671.356035280946
 30
0.0
 10
1244.717477444897
 20
-1677.85279634703
 30
0.0
 10
1242.718977553904
 20
-1685.731040702699
 30
0.0
 10
1239.631482980023
 20
-1692.519945865933
 30
0.0
 10
1244.56968284858
 20
-1692.519945865933
 30
0.0
 10
1249.507882717137
 20
-1692.519945865933
 30
0.0
 10
1254.446427095243
 20
-1692.519945865933
 30
0.0
 10
1259.584442501944
 20
-1677.905161798406
 30
0.0
 10
1283.258105147936
 20
-1681.82568046062
 30
0.0
 10
1301.712448133773
 20
-1680.527568481778
 30
0.0
 10
1281.068057947962
 20
-1704.680443909768
 30
0.0
 10
1256.771522038238
 20
-1725.180140085198
 30
0.0
 10
1230.10751651105
 20
-1743.313744681359
 30
0.0
 10
1231.182386302447
 20
-1745.178230357976
 30
0.0
 10
1231.952365143401
 20
-1747.347951494587
 30
0.0
 10
1233.634949778397
 20
-1748.604722327606
 30
0.0
 10
1260.417466590278
 20
-1746.266191512218
 30
0.0
 10
1298.959127821962
 20
-1749.273759870841
 30
0.0
 10
1326.051358717966
 20
-1748.251944549916
 30
0.0
 10
1332.48989767035
 20
-1748.009409827755
 30
0.0
 10
1333.162724818619
 20
-1744.727611868506
 30
0.0
 10
1335.222202899701
 20
-1740.13943370125
 30
0.0
 10
1336.469327465362
 20
-1737.361308701944
 30
0.0
 10
1338.18188443108
 20
-1734.805736870986
 30
0.0
 10
1338.04408061167
 20
-1732.379011611176
 30
0.0
 10
1321.195496631507
 20
-1736.929293728094
 30
0.0
 10
1298.529524414951
 20
-1737.543898762663
 30
0.0
 10
1278.432215392198
 20
-1737.669989257423
 30
0.0
  0
SPLINE
  5
6B
330
1F
100
AcDbEntity
  8
Layer 1
370
     0
100
AcDbSpline
210
0.0
220
0.0
230
1.0
 70
    11
 71
     3
 72
    26
 73
    22
 74
     0
 42
0.0000000001
 43
0.0000000001
 40
0.0
 40
0.0
 40
0.0
 40
0.0
 40
1.0
 40
1.0
 40
1.0
 40
2.0
 40
2.0
 40
2.0
 40
3.0
 40
3.0
 40
3.0
 40
4.0
 40
4.0
 40
4.0
 40
5.0
 40
5.0
 40
5.0
 40
6.0
 40
6.0
 40
6.0
 40
7.0
 40
7.0
 40
7.0
 40
7.0
 10
570.4957545231747
 20
-1701.691479066765
 30
0.0
 10
552.0085108754528
 20
-1703.656561531551
 30
0.0
 10
522.4945501080916
 20
-1706.318931322552
 30
0.0
 10
511.5892726043076
 20
-1717.917189783194
 30
0.0
 10
507.9338540396832
 20
-1721.80463552875
 30
0.0
 10
504.7509303208609
 20
-1730.310576281832
 30
0.0
 10
507.3564560363553
 20
-1737.317211479733
 30
0.0
 10
514.0251273671535
 20
-1755.25100053775
 30
0.0
 10
550.4254894999805
 20
-1749.08496863825
 30
0.0
 10
565.204776876928
 20
-1741.549855792911
 30
0.0
 10
565.3067517032914
 20
-1738.239119031586
 30
0.0
 10
566.6362140510493
 20
-1734.285871962262
 30
0.0
 10
565.9101601775329
 20
-1731.320678278107
 30
0.0
 10
559.0037772582525
 20
-1735.795857313447
 30
0.0
 10
540.8620766877011
 20
-1738.704206922095
 30
0.0
 10
539.4550996915251
 20
-1728.499145075688
 30
0.0
 10
537.4884669337703
 20
-1714.233693690365
 30
0.0
 10
556.3822318487516
 20
-1712.84532020981
 30
0.0
 10
569.0848156671906
 20
-1711.920656581568
 30
0.0
 10
569.7640162421077
 20
-1708.95167329238
 30
0.0
 10
570.5448471338395
 20
-1704.213288961968
 30
0.0
 10
570.4957545231747
 20
-1701.691479066765
 30
0.0
  0
SPLINE
  5
6C
330
1F
100
AcDbEntity
  8
Layer 1
370
     0
100
AcDbSpline
210
0.0
220
0.0
230
1.0
 70
    11
 71
     3
 72
    26
 73
    22
 74
     0
 42
0.0000000001
 43
0.0000000001
 40
0.0
 40
0.0
 40
0.0
 40
0.0
 40
1.0
 40
1.0
 40
1.0
 40
2.0
 40
2.0
 40
2.0
 40
3.0
 40
3.0
 40
3.0
 40
4.0
 40
4.0
 40
4.0
 40
5.0
 40
5.0
 40
5.0
 40
6.0
 40
6.0
 40
6.0
 40
7.0
 40
7.0
 40
7.0
 40
7.0
 10
1421.642078637645
 20
-1701.691479066765
 30
0.0
 10
1403.155007244697
 20
-1703.656561531551
 30
0.0
 10
1373.640874222562
 20
-1706.318242303455
 30
0.0
 10
1362.735424464004
 20
-1717.917189783194
 30
0.0
 10
1359.080178154154
 20
-1721.80463552875
 30
0.0
 10
1355.89759894488
 20
-1730.310576281832
 30
0.0
 10
1358.502780150826
 20
-1737.317211479733
 30
0.0
 10
1365.171106972075
 20
-1755.25100053775
 30
0.0
 10
1401.571985869225
 20
-1749.08496863825
 30
0.0
 10
1416.351100991398
 20
-1741.549855792911
 30
0.0
 10
1416.453075817762
 20
-1738.239119031586
 30
0.0
 10
1417.78253816552
 20
-1734.285871962262
 30
0.0
 10
1417.056656546778
 20
-1731.320678278107
 30
0.0
 10
1410.148895589303
 20
-1735.797235351641
 30
0.0
 10
1392.007711783074
 20
-1738.702139864804
 30
0.0
 10
1390.601423805996
 20
-1728.499145075688
 30
0.0
 10
1388.635307812563
 20
-1714.233693690365
 30
0.0
 10
1407.528211453674
 20
-1712.846009228907
 30
0.0
 10
1420.231312036435
 20
-1711.920656581568
 30
0.0
 10
1420.910340356578
 20
-1708.95167329238
 30
0.0
 10
1421.691343503084
 20
-1704.213288961968
 30
0.0
 10
1421.642078637645
 20
-1701.691479066765
 30
0.0
  0
SPLINE
  5
6D
330
1F
100
AcDbEntity
  8
Layer 1
370
     0
100
AcDbSpline
210
0.0
220
0.0
230
1.0
 70
    11
 71
     3
 72
    14
 73
    10
 74
     0
 42
0.0000000001
 43
0.0000000001
 40
0.0
 40
0.0
 40
0.0
 40
0.0
 40
1.0
 40
1.0
 40
1.0
 40
2.0
 40
2.0
 40
2.0
 40
3.0
 40
3.0
 40
3.0
 40
3.0
 10
869.2609806854625
 20
-1735.201233832693
 30
0.0
 10
863.4174097233818
 20
-1753.047517465384
 30
0.0
 10
901.2362899222604
 20
-1752.340583871811
 30
0.0
 10
904.5346243398386
 20
-1740.844989256629
 30
0.0
 10
908.188148101946
 20
-1728.109849285855
 30
0.0
 10
893.4241913999078
 20
-1726.554733183813
 30
0.0
 10
882.6651581994727
 20
-1727.793589520309
 30
0.0
 10
875.6071910788413
 20
-1728.60594303573
 30
0.0
 10
870.590787542769
 20
-1731.139466255583
 30
0.0
 10
869.2609806854625
 20
-1735.201233832693
 30
0.0
  0
SPLINE
  5
6E
330
1F
100
AcDbEntity
  8
Layer 1
370
     0
100
AcDbSpline
210
0.0
220
0.0
230
1.0
 70
    11
 71
     3
 72
    14
 73
    10
 74
     0
 42
0.0000000001
 43
0.0000000001
 40
0.0
 40
0.0
 40
0.0
 40
0.0
 40
1.0
 40
1.0
 40
1.0
 40
2.0
 40
2.0
 40
2.0
 40
3.0
 40
3.0
 40
3.0
 40
3.0
 10
1180.019617760551
 20
-1735.201233832693
 30
0.0
 10
1174.176391308019
 20
-1753.047517465384
 30
0.0
 10
1211.995616016446
 20
-1752.340583871811
 30
0.0
 10
1215.292916905378
 20
-1740.844989256629
 30
0.0
 10
1218.94540713884
 20
-1728.109849285855
 30
0.0
 10
1204.183517494093
 20
-1726.554733183813
 30
0.0
 10
1193.423450765012
 20
-1727.793589520309
 30
0.0
 10
1186.365828153929
 20
-1728.60594303573
 30
0.0
 10
1181.349080108309
 20
-1731.139466255583
 30
0.0
 10
1180.019617760551
 20
-1735.201233832693
 30
0.0
  0
HATCH
  5
6F
330
1F
100
AcDbEntity
  8
Layer 1
 62
     7
420
 16777215
100
AcDbHatch
 10
0.0
 20
0.0
 30
0.0
210
0.0
220
0.0
230
1.0
  2
SOLID
 70
     1
 71
     0
 91
       51
 92
        1
 93
        1
 72
     4
 94
        3
 73
     0
 74
     1
 95
      317
 96
      313
 40
0.0
 40
0.0
 40
0.0
 40
0.0
 40
1.0
 40
1.0
 40
1.0
 40
2.0
 40
2.0
 40
2.0
 40
3.0
 40
3.0
 40
3.0
 40
4.0
 40
4.0
 40
4.0
 40
5.0
 40
5.0
 40
5.0
 40
6.0
 40
6.0
 40
6.0
 40
7.0
 40
7.0
 40
7.0
 40
8.0
 40
8.0
 40
8.0
 40
9.0
 40
9.0
 40
9.0
 40
10.0
 40
10.0
 40
10.0
 40
11.0
 40
11.0
 40
11.0
 40
12.0
 40
12.0
 40
12.0
 40
13.0
 40
13.0
 40
13.0
 40
14.0
 40
14.0
 40
14.0
 40
15.0
 40
15.0
 40
15.0
 40
16.0
 40
16.0
 40
16.0
 40
17.0
 40
17.0
 40
17.0
 40
18.0
 40
18.0
 40
18.0
 40
19.0
 40
19.0
 40
19.0
 40
20.0
 40
20.0
 40
20.0
 40
21.0
 40
21.0
 40
21.0
 40
22.0
 40
22.0
 40
22.0
 40
23.0
 40
23.0
 40
23.0
 40
24.0
 40
24.0
 40
24.0
 40
25.0
 40
25.0
 40
25.0
 40
26.0
 40
26.0
 40
26.0
 40
27.0
 40
27.0
 40
27.0
 40
28.0
 40
28.0
 40
28.0
 40
29.0
 40
29.0
 40
29.0
 40
30.0
 40
30.0
 40
30.0
 40
31.0
 40
31.0
 40
31.0
 40
32.0
 40
32.0
 40
32.0
 40
33.0
 40
33.0
 40
33.0
 40
34.0
 40
34.0
 40
34.0
 40
35.0
 40
35.0
 40
35.0
 40
36.0
 40
36.0
 40
36.0
 40
37.0
 40
37.0
 40
37.0
 40
38.0
 40
38.0
 40
38.0
 40
39.0
 40
39.0
 40
39.0
 40
40.0
 40
40.0
 40
40.0
 40
41.0
 40
41.0
 40
41.0
 40
42.0
 40
42.0
 40
42.0
 40
43.0
 40
43.0
 40
43.0
 40
44.0
 40
44.0
 40
44.0
 40
45.0
 40
45.0
 40
45.0
 40
46.0
 40
46.0
 40
46.0
 40
47.0
 40
47.0
 40
47.0
 40
48.0
 40
48.0
 40
48.0
 40
49.0
 40
49.0
 40
49.0
 40
50.0
 40
50.0
 40
50.0
 40
51.0
 40
51.0
 40
51.0
 40
52.0
 40
52.0
 40
52.0
 40
53.0
 40
53.0
 40
53.0
 40
54.0
 40
54.0
 40
54.0
 40
55.0
 40
55.0
 40
55.0
 40
56.0
 40
56.0
 40
56.0
 40
57.0
 40
57.0
 40
57.0
 40
58.0
 40
58.0
 40
58.0
 40
59.0
 40
59.0
 40
59.0
 40
60.0
 40
60.0
 40
60.0
 40
61.0
 40
61.0
 40
61.0
 40
62.0
 40
62.0
 40
62.0
 40
63.0
 40
63.0
 40
63.0
 40
64.0
 40
64.0
 40
64.0
 40
65.0
 40
65.0
 40
65.0
 40
66.0
 40
66.0
 40
66.0
 40
67.0
 40
67.0
 40
67.0
 40
68.0
 40
68.0
 40
68.0
 40
69.0
 40
69.0
 40
69.0
 40
70.0
 40
70.0
 40
70.0
 40
71.0
 40
71.0
 40
71.0
 40
72.0
 40
72.0
 40
72.0
 40
73.0
 40
73.0
 40
73.0
 40
74.0
 40
74.0
 40
74.0
 40
75.0
 40
75.0
 40
75.0
 40
76.0
 40
76.0
 40
76.0
 40
77.0
 40
77.0
 40
77.0
 40
78.0
 40
78.0
 40
78.0
 40
79.0
 40
79.0
 40
79.0
 40
80.0
 40
80.0
 40
80.0
 40
81.0
 40
81.0
 40
81.0
 40
82.0
 40
82.0
 40
82.0
 40
83.0
 40
83.0
 40
83.0
 40
84.0
 40
84.0
 40
84.0
 40
85.0
 40
85.0
 40
85.0
 40
86.0
 40
86.0
 40
86.0
 40
87.0
 40
87.0
 40
87.0
 40
88.0
 40
88.0
 40
88.0
 40
89.0
 40
89.0
 40
89.0
 40
90.0
 40
90.0
 40
90.0
 40
91.0
 40
91.0
 40
91.0
 40
92.0
 40
92.0
 40
92.0
 40
93.0
 40
93.0
 40
93.0
 40
94.0
 40
94.0
 40
94.0
 40
95.0
 40
95.0
 40
95.0
 40
96.0
 40
96.0
 40
96.0
 40
97.0
 40
97.0
 40
97.0
 40
98.0
 40
98.0
 40
98.0
 40
99.0
 40
99.0
 40
99.0
 40
100.0
 40
100.0
 40
100.0
 40
101.0
 40
101.0
 40
101.0
 40
102.0
 40
102.0
 40
102.0
 40
103.0
 40
103.0
 40
103.0
 40
104.0
 40
104.0
 40
104.0
 40
104.0
 10
843.5116480096083
 20
-582.1146835567283
 10
841.7909950695002
 20
-612.9636188246237
 10
839.5039684316171
 20
-643.2446301017757
 10
837.8678925856719
 20
-674.178142463834
 10
796.9131142213447
 20
-696.3924626622735
 10
745.0406560094864
 20
-712.6776012758237
 10
687.9561128379936
 20
-719.6807913782395
 10
658.5300020055064
 20
-723.2907346824586
 10
622.285530443387
 20
-726.0898747642241
 10
600.8308537994451
 20
-715.4479748102873
 10
579.1014307905546
 20
-704.6698213299089
 10
570.6084091455424
 20
-680.5817136970421
 10
574.0230155357477
 20
-645.9593653441525
 10
572.9278196809868
 20
-645.4257200534873
 10
571.5296276782982
 20
-647.5518607322093
 10
570.1429767454852
 20
-648.7812430561207
 10
549.898217635963
 20
-666.7288124960783
 10
526.9788586464671
 20
-684.7618203040699
 10
501.712700612419
 20
-698.163930760789
 10
473.9734807842844
 20
-712.8779335782909
 10
442.0546711134447
 20
-721.676707447619
 10
401.5362140923243
 20
-723.5608301685022
 10
360.5965941481321
 20
-725.4645899336513
 10
330.4216918119258
 20
-711.6535466428331
 10
310.8836940412027
 20
-689.3456921019691
 10
290.6709743196934
 20
-666.2671697010547
 10
280.7666693091486
 20
-635.1107596611008
 10
283.0176946992109
 20
-593.0494166269112
 10
285.0988768818503
 20
-554.1675522160589
 10
296.677153788678
 20
-523.7873221889316
 10
315.8220661645341
 20
-500.2804021644264
 10
334.4963784971051
 20
-477.3512246527976
 10
359.2344033932644
 20
-458.6727782056443
 10
387.0742200095683
 20
-445.9595145912011
 10
445.299262041453
 20
-419.3702676360429
 10
518.4558646707333
 20
-409.9649847065365
 10
591.3068873304719
 20
-399.0459268208115
 10
591.5421873521145
 20
-399.0459268208115
 10
591.7771428642085
 20
-399.0459268208115
 10
592.0124428858511
 20
-399.0459268208115
 10
592.8756115596805
 20
-372.5526257749174
 10
599.2023571635675
 20
-342.4052842025931
 10
592.7179984412303
 20
-318.6225842844937
 10
586.4203638941935
 20
-295.5249416036361
 10
566.8248330288667
 20
-287.4253498630395
 10
537.6915553126257
 20
-287.5819294528441
 10
482.0329371624779
 20
-287.8813082505123
 10
457.7469087939834
 20
-322.5179537496657
 10
441.0425020598783
 20
-362.7142943429152
 10
403.214664612738
 20
-363.438625668689
 10
364.0925047917894
 20
-358.7837849037937
 10
325.6986381564226
 20
-360.5979721863262
 10
313.6687092314787
 20
-361.1664129413924
 10
303.317575336497
 20
-363.5576537177043
 10
293.5998222464785
 20
-367.6524942114723
 10
266.5637464068834
 20
-379.045080471645
 10
245.0727240055721
 20
-396.688447980255
 10
231.8714626156433
 20
-423.384492895456
 10
227.5695718832118
 20
-432.0840480148088
 10
222.798286890915
 20
-441.6469440627654
 10
221.2895073231498
 20
-451.9558755380527
 10
217.7765434568406
 20
-475.9573390194656
 10
219.5256184347019
 20
-502.4204954798636
 10
219.5256184347019
 20
-528.4991792841079
 10
219.5256184347019
 20
-606.499930675198
 10
219.5256184347019
 20
-685.6377358311947
 10
219.5256184347019
 20
-763.4197236589715
 10
738.8275985566125
 20
-764.2427569703976
 10
1259.782535492346
 20
-763.5373736697928
 10
1779.666736751264
 20
-763.7725014366611
 10
1779.902036772907
 20
-763.7725014366611
 10
1780.136992285001
 20
-763.7725014366611
 10
1780.372292306643
 20
-763.7725014366611
 10
1780.375048383031
 20
-676.657405429794
 10
1780.368158192061
 20
-585.8665647949397
 10
1780.372292306643
 20
-498.1640800078375
 10
1780.372636816192
 20
-486.4483437911484
 10
1780.66030228921
 20
-475.4870834857289
 10
1780.019514528954
 20
-465.3598807972885
 10
1779.360467762625
 20
-454.9463906740239
 10
1777.642054134583
 20
-446.4688719586953
 10
1774.375759105017
 20
-437.8466592329863
 10
1768.320659280142
 20
-421.8621052005241
 10
1760.489612732621
 20
-407.734113125063
 10
1749.331637474994
 20
-396.5768268865329
 10
1728.204589411699
 20
-375.4506400971096
 10
1699.430462899795
 20
-357.0286810088331
 10
1652.682584222246
 20
-360.5979721863262
 10
1645.425490582567
 20
-420.1238822734413
 10
1636.998442516098
 20
-483.9546114241502
 10
1631.871451414949
 20
-548.2523232678849
 10
1630.226762830291
 20
-568.8758706260102
 10
1628.195190022639
 20
-598.1219752193931
 10
1645.27528441941
 20
-602.2204330634206
 10
1651.46956610189
 20
-603.7068195105317
 10
1659.208973109503
 20
-602.2922633042881
 10
1665.380861671328
 20
-601.1622719851262
 10
1681.095664727296
 20
-598.2854450001682
 10
1693.047045475176
 20
-592.7529661604055
 10
1704.534716370741
 20
-585.6419445693014
 10
1706.458457689705
 20
-584.4509750600505
 10
1708.101423726621
 20
-582.0959077863337
 10
1710.530905062819
 20
-582.4672890796436
 10
1708.625422749927
 20
-597.523389878831
 10
1706.84017426947
 20
-613.1367348727575
 10
1704.887494148431
 20
-628.6754935494283
 10
1702.931024422357
 20
-644.2371621110761
 10
1701.794142912225
 20
-660.0275850129445
 10
1699.243394214946
 20
-674.5309202415235
 10
1698.896128590033
 20
-676.5054767188944
 10
1689.826570215564
 20
-680.5095389466261
 10
1686.897894543553
 20
-681.9382200443592
 10
1639.205715193497
 20
-705.2036388753485
 10
1589.119538990741
 20
-718.9213200785163
 10
1520.760231824671
 20
-722.1498913125181
 10
1480.516693423274
 20
-724.0505504917304
 10
1451.879681711683
 20
-720.1326156511301
 10
1448.802522424258
 20
-682.6437755997384
 10
1447.866145471367
 20
-671.2334470978167
 10
1449.145998444137
 20
-658.8264524720122
 10
1450.213633535016
 20
-647.3704764549109
 10
1457.655384292704
 20
-567.5114405590771
 10
1469.263289020705
 20
-489.2438665226543
 10
1477.021299543939
 20
-411.3915987469785
 10
1479.249931813347
 20
-389.0244885637682
 10
1481.062052038589
 20
-360.9507499640158
 10
1469.613999741103
 20
-347.1939669270904
 10
1463.695670206993
 20
-340.0827730812119
 10
1453.604985530696
 20
-339.3978880987443
 10
1441.042444843732
 20
-342.6085448362229
 10
1410.001445502534
 20
-350.5415662101077
 10
1384.636929992382
 20
-376.7265312100719
 10
1366.262857731351
 20
-399.0459268208115
 10
1364.699473400145
 20
-400.9450357070554
 10
1362.905612180975
 20
-402.6184908390155
 10
1362.030213418173
 20
-404.3369044670582
 10
1360.908490328176
 20
-406.5379759725843
 10
1361.048016695328
 20
-408.8723726733896
 10
1360.619102307415
 20
-412.0969820475834
 10
1354.692160034591
 20
-456.6689384166488
 10
1350.485353937552
 20
-501.8451645338269
 10
1346.509713747574
 20
-548.2523232678849
 10
1342.59608527633
 20
-593.9387680264285
 10
1336.869992070296
 20
-640.7252317734125
 10
1340.160402768259
 20
-689.6984698796588
 10
1275.311647901658
 20
-699.3953801419915
 10
1212.557166580541
 20
-713.0631074606232
 10
1156.739040509426
 20
-730.6155244484225
 10
1167.208685689101
 20
-642.2831039518425
 10
1179.267208906572
 20
-549.9779715964465
 10
1186.015806452628
 20
-457.2470254390737
 10
1187.693567953945
 20
-434.1964083115898
 10
1190.23122528838
 20
-410.1828869959786
 10
1190.601573053044
 20
-385.9946993392653
 10
1190.973643365451
 20
-361.6871391239879
 10
1187.74834497216
 20
-337.1198187091229
 10
1161.324462600294
 20
-341.1976059802388
 10
1141.177199693004
 20
-344.3068046556768
 10
1125.631895334912
 20
-356.04493399302
 10
1111.941774895626
 20
-367.299888688557
 10
1097.787944604025
 20
-378.9362154543111
 10
1086.119750705033
 20
-391.4407062823482
 10
1074.552153594209
 20
-405.3950655453526
 10
1068.434697541051
 20
-451.3205999305727
 10
1065.199063861304
 20
-498.130318072082
 10
1061.148320589748
 20
-545.4304455559167
 10
1057.113080247874
 20
-592.5478107242589
 10
1052.841850865262
 20
-640.3839950655985
 10
1053.035465231533
 20
-689.6984698796588
 10
989.1689070877773
 20
-699.7894990655041
 10
928.0439559311835
 20
-712.6180011239288
 10
872.4359806846688
 20
-730.9683022261121
 10
881.1644746060978
 20
-656.8675711790991
 10
890.3756264050103
 20
-576.9635767871828
 10
897.1269800274544
 20
-498.5168577855271
 10
900.4618324571762
 20
-459.7707301367935
 10
904.8898136843678
 20
-417.4055296808049
 10
904.8874021175282
 20
-377.1764606804455
 10
904.8860240793341
 20
-353.865566589051
 10
901.8949921790402
 20
-338.9272880554591
 10
877.374180553226
 20
-340.8448282025493
 10
858.5105602237404
 20
-342.3198458345589
 10
842.7230656530345
 20
-347.9606729273328
 10
827.28559278363
 20
-354.2486612070107
 10
829.7850095581788
 20
-324.883873074161
 10
831.9988279170003
 20
-295.2348645637781
 10
834.3404593183246
 20
-265.7124633124781
 10
835.0344738038282
 20
-264.2851602529391
 10
837.4727401335138
 20
-263.7308443893625
 10
839.278831441656
 20
-262.89058560051
 10
884.5055282076931
 20
-241.8506984529922
 10
934.5627656083732
 20
-219.6675563686942
 10
990.9541555682338
 20
-208.5696980272847
 10
1017.617816585873
 20
-203.3223008389264
 10
1060.242604986676
 20
-195.9682277613378
 10
1078.079586861556
 20
-212.4497368175473
 10
1097.163693302098
 20
-230.0839748231214
 10
1085.022143283432
 20
-271.3581135389313
 10
1084.075775553634
 20
-300.280551411475
 10
1085.891685383909
 20
-300.9185830953433
 10
1086.946229111944
 20
-298.639307922302
 10
1087.955986598671
 20
-297.8112792224222
 10
1129.999587391111
 20
-263.3384480135925
 10
1175.951993521116
 20
-227.1797593290558
 10
1236.104049712676
 20
-211.0387979615632
 10
1266.423301549714
 20
-202.9032049731457
 10
1312.138685110333
 20
-196.536668516404
 10
1338.749636167049
 20
-212.8025145952369
 10
1363.404462007239
 20
-227.8725680311395
 10
1374.705408727504
 20
-258.1511677414518
 10
1369.790290998698
 20
-300.6331569343903
 10
1371.537298919269
 20
-300.7682046774121
 10
1372.790969166351
 20
-299.0616766287936
 10
1374.022935311876
 20
-298.1640570001118
 10
1396.500805314937
 20
-281.789345903945
 10
1419.770702770057
 20
-265.0802882909348
 10
1444.21710033339
 20
-249.8395303737381
 10
1470.263400240073
 20
-233.6012450587872
 10
1498.690950146161
 20
-218.8157565099662
 10
1531.342187117164
 20
-210.3332424061841
 10
1548.731651088512
 20
-205.815688696376
 10
1567.657283136732
 20
-203.8602524989481
 10
1587.426963578838
 20
-202.9259426033484
 10
1628.493535291661
 20
-200.9854925712814
 10
1651.569129361413
 20
-223.0573580714058
 10
1659.031895201562
 20
-257.2468301765737
 10
1662.864219419354
 20
-274.805103826698
 10
1660.934965947614
 20
-294.4569620032087
 10
1657.973561868493
 20
-314.3897677165415
 10
1710.342458339775
 20
-314.1968423693675
 10
1745.369777666956
 20
-330.8332084676389
 10
1772.612214726118
 20
-355.3069945400795
 10
1799.520133013662
 20
-379.4801960314321
 10
1820.2165441413
 20
-413.0137219562084
 10
1825.169213410895
 20
-457.9524087396786
 10
1827.850186717517
 20
-482.2739215916711
 10
1826.228924782158
 20
-508.4445894453715
 10
1826.227546743964
 20
-534.848318008649
 10
1826.211010285635
 20
-897.4987058303128
 10
1826.244083202293
 20
-1260.416777571181
 10
1826.227546743964
 20
-1622.326125353967
 10
1826.226857724867
 20
-1635.724101696104
 10
1826.44803285502
 20
-1648.244267708599
 10
1825.169213410895
 20
-1660.068524433073
 10
1819.132372592092
 20
-1715.894229714256
 10
1787.873298706678
 20
-1755.498358393591
 10
1749.684415252683
 20
-1778.940166113425
 10
1733.68366927144
 20
-1788.761444322775
 10
1715.487363937448
 20
-1796.602481647204
 10
1693.59963879101
 20
-1800.456854476101
 10
1672.153574885781
 20
-1804.233368147032
 10
1645.968437631043
 20
-1802.572143104044
 10
1618.114840632798
 20
-1802.572832123142
 10
1205.694191864375
 20
-1802.585923485986
 10
787.1383448010453
 20
-1802.560429779395
 10
375.0813258610908
 20
-1802.572832123142
 10
346.8291313152025
 20
-1802.574210161336
 10
322.0092854012685
 20
-1803.610494883299
 10
300.6545165263989
 20
-1799.045743365343
 10
279.2442816142167
 20
-1794.46858950364
 10
261.4515692163212
 20
-1786.478724054248
 10
245.980851175484
 20
-1776.117943891908
 10
215.2821220707455
 20
-1755.561059131422
 10
191.8556450258208
 20
-1727.58068261932
 10
180.0196749766965
 20
-1686.876190441996
 10
177.0746351011307
 20
-1676.748987753556
 10
174.8404906789461
 20
-1665.706078685136
 10
174.0231417750706
 20
-1653.719213453758
 10
173.2014865018385
 20
-1641.669647484548
 10
173.670363997381
 20
-1628.632028130168
 10
173.670363997381
 20
-1615.271258819273
 10
173.670363997381
 20
-1253.75327388361
 10
173.670363997381
 20
-890.9836857581569
 10
173.670363997381
 20
-527.7936237287287
 10
173.670363997381
 20
-501.6167547031549
 10
172.0714951826766
 20
-475.4219711810577
 10
175.4339083762804
 20
-451.9558755380527
 10
181.696058439819
 20
-408.2557005815298
 10
203.4146293979311
 20
-375.7141899017312
 10
230.8131292825745
 20
-352.1323390504218
 10
258.3873290369657
 20
-328.3994207620842
 10
295.4544894009628
 20
-312.9147500845318
 10
348.2734875973935
 20
-314.3897677165415
 10
350.8037379765352
 20
-291.1705131650546
 10
352.6647785576671
 20
-267.2817043060094
 10
354.6226263219347
 20
-243.4902193944226
 10
423.9997869491216
 20
-215.1915160594834
 10
507.9462563834301
 20
-204.8458943172781
 10
600.8308537994451
 20
-200.4568426690698
 10
660.1529864886077
 20
-197.6537407274963
 10
716.8256684948387
 20
-205.4129570341503
 10
748.6261391357601
 20
-230.7919419453402
 10
765.902603975191
 20
-244.5795585868586
 10
776.161409311168
 20
-261.5590561954609
 10
777.5504718108208
 20
-290.7565849425018
 10
778.8578855474731
 20
-318.2396619213081
 10
774.7907780723614
 20
-345.895682693474
 10
772.2593219097998
 20
-373.6490274130982
 10
767.3374862447976
 20
-427.6126585845031
 10
759.9617090656519
 20
-480.031508940322
 10
756.3863889710597
 20
-535.9064790869436
 10
754.6991534571586
 20
-562.273345128529
 10
751.5467188333807
 20
-599.9060179164297
 10
776.492138477752
 20
-602.5732108411102
 10
790.2745874760425
 20
-604.0468504349258
 10
803.7933144149371
 20
-600.0302136086731
 10
814.5874875893219
 20
-596.2238998617947
 10
824.1695039172215
 20
-592.845122464636
 10
832.6139497158916
 20
-588.1529024137257
 10
840.68977029764
 20
-583.1728446350228
 10
841.4833480426674
 20
-582.683468821343
 10
842.4376394920816
 20
-581.583622087677
 10
843.5116480096083
 20
-582.1146835567283
 97
        0
 92
        1
 93
        1
 72
     4
 94
        3
 73
     0
 74
     1
 95
       32
 96
       28
 40
0.0
 40
0.0
 40
0.0
 40
0.0
 40
1.0
 40
1.0
 40
1.0
 40
2.0
 40
2.0
 40
2.0
 40
3.0
 40
3.0
 40
3.0
 40
4.0
 40
4.0
 40
4.0
 40
5.0
 40
5.0
 40
5.0
 40
6.0
 40
6.0
 40
6.0
 40
7.0
 40
7.0
 40
7.0
 40
8.0
 40
8.0
 40
8.0
 40
9.0
 40
9.0
 40
9.0
 40
9.0
 10
582.4886486716522
 20
-477.352774945766
 10
548.3084783242945
 20
-479.0611977969014
 10
516.7360730044966
 20
-484.2381427825863
 10
493.2470674765146
 20
-496.0475855964742
 10
468.8433890971989
 20
-508.316948657643
 10
454.4862981719687
 20
-529.6408839279196
 10
455.5044961426343
 20
-566.241578363214
 10
456.455859260886
 20
-600.4351845829641
 10
478.666562109066
 20
-618.9060640271312
 10
515.4693113945702
 20
-609.9805106439459
 10
535.6913328738897
 20
-605.0762449659185
 10
552.1368406822783
 20
-592.4938949799148
 10
565.9101601775329
 20
-579.6454113676755
 10
569.5194144626549
 20
-576.2786918047151
 10
577.638298737969
 20
-569.6654865112295
 10
578.9613876590792
 20
-565.5361950626091
 10
579.9170571466874
 20
-562.5532591367055
 10
579.6743501697516
 20
-558.274967308348
 10
580.0195487373736
 20
-554.601461992426
 10
581.0751259940541
 20
-543.3680391436719
 10
582.2106294659925
 20
-531.6476520480777
 10
583.1942042270314
 20
-521.0917072264979
 10
584.5925684844942
 20
-506.0812539424902
 10
586.6143227700131
 20
-491.6745536422724
 10
586.3686874619148
 20
-476.9999971680764
 10
584.2642508847499
 20
-476.7169825739632
 10
583.4904824387628
 20
-477.3026488064556
 10
582.4886486716522
 20
-477.352774945766
 97
        0
 92
        1
 93
        1
 72
     4
 94
        3
 73
     0
 74
     1
 95
       47
 96
       43
 40
0.0
 40
0.0
 40
0.0
 40
0.0
 40
1.0
 40
1.0
 40
1.0
 40
2.0
 40
2.0
 40
2.0
 40
3.0
 40
3.0
 40
3.0
 40
4.0
 40
4.0
 40
4.0
 40
5.0
 40
5.0
 40
5.0
 40
6.0
 40
6.0
 40
6.0
 40
7.0
 40
7.0
 40
7.0
 40
8.0
 40
8.0
 40
8.0
 40
9.0
 40
9.0
 40
9.0
 40
10.0
 40
10.0
 40
10.0
 40
11.0
 40
11.0
 40
11.0
 40
12.0
 40
12.0
 40
12.0
 40
13.0
 40
13.0
 40
13.0
 40
14.0
 40
14.0
 40
14.0
 40
14.0
 10
646.686108236766
 20
-971.1796519924482
 10
643.2857989928244
 20
-969.7954126264748
 10
642.8040023892122
 20
-961.4124617822164
 10
643.158847224193
 20
-953.8959524524982
 10
645.0696694350868
 20
-913.4191810867494
 10
650.1344765627268
 20
-876.059187606506
 10
653.7408025166864
 20
-837.8465329936635
 10
654.3671208759048
 20
-831.2116235986207
 10
655.7312064332895
 20
-824.6163328016585
 10
655.50451915036
 20
-818.446166787576
 10
655.1260754113054
 20
-808.1418861911937
 10
650.7695799154326
 20
-805.057147693701
 10
639.9841917345352
 20
-805.7475448289451
 10
621.7360377134896
 20
-806.9168102366389
 10
600.2393309046276
 20
-813.378775838322
 10
584.6051430830154
 20
-818.446166787576
 10
583.9326604442946
 20
-826.3571395503552
 10
583.0803438212438
 20
-834.0875893097073
 10
582.1360431487368
 20
-841.7267440387003
 10
586.8062145885415
 20
-841.7281220768944
 10
598.3598590626497
 20
-835.006051766075
 10
604.0055092891029
 20
-839.6100773725628
 10
607.0504569337409
 20
-842.0933021983309
 10
605.9757593971171
 20
-851.5252846178479
 10
605.4162758903126
 20
-859.0107880881988
 10
602.594742687893
 20
-896.7721351924737
 10
598.9758421354123
 20
-934.0311873749991
 10
596.5978649767186
 20
-971.1796519924482
 10
595.6098115915489
 20
-986.6171248618527
 10
593.1996227900681
 20
-1000.964225010176
 10
607.5327703016759
 20
-1002.573429111336
 10
617.8296439427648
 20
-1003.728914137089
 10
628.5559487360902
 20
-1001.004532627353
 10
637.8678695779463
 20
-998.6928735567504
 10
647.410611817314
 20
-996.3243704106412
 10
655.7914956042813
 20
-993.8676728201095
 10
663.6173745085748
 20
-989.874807152705
 10
663.8056489768437
 20
-981.8325762519378
 10
664.4779593607902
 20
-974.2743812668481
 10
665.0283133645589
 20
-966.5942299015807
 10
660.6068778187893
 20
-967.2446639291958
 10
653.3954316942901
 20
-973.9112682027028
 10
646.686108236766
 20
-971.1796519924482
 97
        0
 92
        1
 93
        1
 72
     4
 94
        3
 73
     0
 74
     1
 95
       47
 96
       43
 40
0.0
 40
0.0
 40
0.0
 40
0.0
 40
1.0
 40
1.0
 40
1.0
 40
2.0
 40
2.0
 40
2.0
 40
3.0
 40
3.0
 40
3.0
 40
4.0
 40
4.0
 40
4.0
 40
5.0
 40
5.0
 40
5.0
 40
6.0
 40
6.0
 40
6.0
 40
7.0
 40
7.0
 40
7.0
 40
8.0
 40
8.0
 40
8.0
 40
9.0
 40
9.0
 40
9.0
 40
10.0
 40
10.0
 40
10.0
 40
11.0
 40
11.0
 40
11.0
 40
12.0
 40
12.0
 40
12.0
 40
13.0
 40
13.0
 40
13.0
 40
14.0
 40
14.0
 40
14.0
 40
14.0
 10
1630.107562526501
 20
-971.1796519924482
 10
1626.707253282559
 20
-969.7954126264748
 10
1626.225628933722
 20
-961.4124617822164
 10
1626.580129259154
 20
-953.8959524524982
 10
1628.490434705725
 20
-913.419525596298
 10
1633.553347030848
 20
-876.0584985874091
 10
1637.162429061196
 20
-837.8465329936635
 10
1637.789091929963
 20
-831.2116235986207
 10
1639.152316213476
 20
-824.6163328016585
 10
1638.925973440095
 20
-818.446166787576
 10
1638.548046465363
 20
-808.1418861911937
 10
1634.190689695619
 20
-805.057147693701
 10
1623.405818279045
 20
-805.7475448289451
 10
1605.157492003225
 20
-806.9168102366389
 10
1583.660785194363
 20
-813.378775838322
 10
1568.02659737275
 20
-818.446166787576
 10
1567.35411473403
 20
-826.3571395503552
 10
1566.501798110979
 20
-834.0875893097073
 10
1565.557497438472
 20
-841.7267440387003
 10
1570.227324368728
 20
-841.7281220768944
 10
1581.781485607159
 20
-835.006051766075
 10
1587.426963578838
 20
-839.6100773725628
 10
1590.472427987799
 20
-842.093991217428
 10
1589.396524667755
 20
-851.5249401082993
 10
1588.837730180048
 20
-859.0107880881988
 10
1586.019642073113
 20
-896.7724797020222
 10
1582.39781318947
 20
-934.0308428654506
 10
1580.019663776002
 20
-971.1796519924482
 10
1579.031265881284
 20
-986.6171248618527
 10
1576.621077079803
 20
-1000.964225010176
 10
1590.954396846185
 20
-1002.573429111336
 10
1601.2510982325
 20
-1003.728914137089
 10
1611.977403025825
 20
-1001.004532627353
 10
1621.289151612907
 20
-998.6928735567504
 10
1630.832066107049
 20
-996.3243704106412
 10
1639.212949894016
 20
-993.8676728201095
 10
1647.03882879831
 20
-989.874807152705
 10
1647.227275521353
 20
-981.8325762519378
 10
1647.899413650525
 20
-974.2743812668481
 10
1648.449939909068
 20
-966.5942299015807
 10
1644.028504363298
 20
-967.2446639291958
 10
1636.816885984025
 20
-973.9112682027028
 10
1630.107562526501
 20
-971.1796519924482
 97
        0
 92
        1
 93
        1
 72
     4
 94
        3
 73
     0
 74
     1
 95
       53
 96
       49
 40
0.0
 40
0.0
 40
0.0
 40
0.0
 40
1.0
 40
1.0
 40
1.0
 40
2.0
 40
2.0
 40
2.0
 40
3.0
 40
3.0
 40
3.0
 40
4.0
 40
4.0
 40
4.0
 40
5.0
 40
5.0
 40
5.0
 40
6.0
 40
6.0
 40
6.0
 40
7.0
 40
7.0
 40
7.0
 40
8.0
 40
8.0
 40
8.0
 40
9.0
 40
9.0
 40
9.0
 40
10.0
 40
10.0
 40
10.0
 40
11.0
 40
11.0
 40
11.0
 40
12.0
 40
12.0
 40
12.0
 40
13.0
 40
13.0
 40
13.0
 40
14.0
 40
14.0
 40
14.0
 40
15.0
 40
15.0
 40
15.0
 40
16.0
 40
16.0
 40
16.0
 40
16.0
 10
471.0248235584591
 20
-970.8272187243072
 10
466.4638616455368
 20
-968.9327607169682
 10
466.9809704778729
 20
-958.45002417445
 10
467.4975625458861
 20
-951.7796302959093
 10
468.1183687523281
 20
-943.7615150635388
 10
469.0011744704233
 20
-936.6442923005612
 10
469.6137124477008
 20
-930.6157197109225
 10
471.2246390966036
 20
-914.7634573450939
 10
477.1030055230854
 20
-886.3882728903822
 10
467.8501680688014
 20
-876.2944876281487
 10
460.398426534206
 20
-868.1654403211531
 10
439.018508462294
 20
-864.0158228091697
 10
421.9949136314805
 20
-866.0653101133448
 10
400.5311074845027
 20
-868.6494762368308
 10
378.1443602570264
 20
-869.051863389508
 10
360.6191595235605
 20
-877.7052542293585
 10
359.6851941375093
 20
-887.9413219351328
 10
359.0407890269933
 20
-898.4667776616681
 10
357.4445040339028
 20
-908.0406980151773
 10
365.4712320049863
 20
-908.7145586920923
 10
374.6224391424555
 20
-908.2639402026216
 10
383.1941812193056
 20
-908.393475792867
 10
386.3753823903853
 20
-902.0048907250197
 10
388.5054849289153
 20
-897.2003605612903
 10
394.4816920671782
 20
-893.2257538999575
 10
399.905305889607
 20
-889.618738926901
 10
413.0995048337911
 20
-886.3424531204283
 10
420.5839747754964
 20
-890.7566539656789
 10
428.3431910821503
 20
-895.3327742987362
 10
425.8615165493506
 20
-911.5264456271532
 10
424.8167913434486
 20
-923.5608531762279
 10
423.5479626762311
 20
-938.1756372437547
 10
422.2000690676271
 20
-953.099790885857
 10
420.9365802984117
 20
-967.6525632346494
 10
420.2565184496234
 20
-975.4870548776561
 10
418.8085448171729
 20
-983.3074216291732
 10
419.5258136972019
 20
-990.2275849303945
 10
420.3695175815396
 20
-998.3686900715884
 10
425.6947739278645
 20
-1001.941598599341
 10
433.282424479353
 20
-1002.573429111336
 10
454.2947508629888
 20
-1004.322504089197
 10
474.2454710728449
 20
-996.5975664826215
 10
488.6614731308728
 20
-990.2275849303945
 10
489.0924545760776
 20
-982.1929332396949
 10
489.7826794565474
 20
-974.417352729486
 10
490.0724119868569
 20
-966.2414521238911
 10
485.4690753994661
 20
-966.9483857174644
 10
478.2817449433636
 20
-973.8413327643522
 10
471.0248235584591
 20
-970.8272187243072
 97
        0
 92
        1
 93
        1
 72
     4
 94
        3
 73
     0
 74
     1
 95
       53
 96
       49
 40
0.0
 40
0.0
 40
0.0
 40
0.0
 40
1.0
 40
1.0
 40
1.0
 40
2.0
 40
2.0
 40
2.0
 40
3.0
 40
3.0
 40
3.0
 40
4.0
 40
4.0
 40
4.0
 40
5.0
 40
5.0
 40
5.0
 40
6.0
 40
6.0
 40
6.0
 40
7.0
 40
7.0
 40
7.0
 40
8.0
 40
8.0
 40
8.0
 40
9.0
 40
9.0
 40
9.0
 40
10.0
 40
10.0
 40
10.0
 40
11.0
 40
11.0
 40
11.0
 40
12.0
 40
12.0
 40
12.0
 40
13.0
 40
13.0
 40
13.0
 40
14.0
 40
14.0
 40
14.0
 40
15.0
 40
15.0
 40
15.0
 40
16.0
 40
16.0
 40
16.0
 40
16.0
 10
978.2558781191514
 20
-970.8272187243072
 10
973.6949162062291
 20
-968.9327607169682
 10
974.2123695481137
 20
-958.45002417445
 10
974.728444851804
 20
-951.7796302959093
 10
975.3492510582461
 20
-943.7611705539903
 10
976.231884521567
 20
-936.6442923005612
 10
976.8451115179415
 20
-930.6157197109225
 10
978.4560381668443
 20
-914.7638018546425
 10
984.3337155742291
 20
-886.3879283808336
 10
975.0812226294936
 20
-876.2944876281487
 10
967.6298256044468
 20
-868.1657848307017
 10
946.2492185134378
 20
-864.0154782996211
 10
929.2256236826242
 20
-866.0653101133448
 10
907.7619897904207
 20
-868.6498207463793
 10
885.3750703081702
 20
-869.0511743704109
 10
867.8502140842528
 20
-877.7052542293585
 10
866.9162486982016
 20
-887.9413219351328
 10
866.2720158424598
 20
-898.4667776616681
 10
864.675558594595
 20
-908.0406980151773
 10
872.7022865656786
 20
-908.7145586920923
 10
881.8534937031478
 20
-908.2639402026216
 10
890.4252357799979
 20
-908.393475792867
 10
893.6060924415291
 20
-902.0048907250197
 10
895.7365394896076
 20
-897.2003605612903
 10
901.712402118322
 20
-893.2257538999575
 10
907.1363604502993
 20
-889.6190834364494
 10
920.3303871397092
 20
-886.3421086108798
 10
927.8148570814144
 20
-890.7566539656789
 10
935.5742456428426
 20
-895.3331188082848
 10
933.0923988552686
 20
-911.5264456271532
 10
932.0478459041409
 20
-923.5608531762279
 10
930.7793617464719
 20
-938.1756372437547
 10
929.4312958830936
 20
-953.099790885857
 10
928.1676348591039
 20
-967.6525632346494
 10
927.4872285007672
 20
-975.4873993872046
 10
926.0395993778651
 20
-983.3070771196246
 10
926.7568682578942
 20
-990.2275849303945
 10
927.6002276326833
 20
-998.3686900715884
 10
932.9263452528795
 20
-1001.941598599341
 10
940.5131345304968
 20
-1002.573429111336
 10
961.525805423681
 20
-1004.322504089197
 10
981.4766978883114
 20
-996.5975664826215
 10
995.8923554367908
 20
-990.2275849303945
 10
996.3236813915441
 20
-982.1929332396949
 10
997.0137340172397
 20
-974.417352729486
 10
997.3034665475492
 20
-966.2414521238911
 10
992.7001299601584
 20
-966.9483857174644
 10
985.5129717588302
 20
-973.8413327643522
 10
978.2558781191514
 20
-970.8272187243072
 97
        0
 92
        1
 93
        1
 72
     4
 94
        3
 73
     0
 74
     1
 95
       56
 96
       52
 40
0.0
 40
0.0
 40
0.0
 40
0.0
 40
1.0
 40
1.0
 40
1.0
 40
2.0
 40
2.0
 40
2.0
 40
3.0
 40
3.0
 40
3.0
 40
4.0
 40
4.0
 40
4.0
 40
5.0
 40
5.0
 40
5.0
 40
6.0
 40
6.0
 40
6.0
 40
7.0
 40
7.0
 40
7.0
 40
8.0
 40
8.0
 40
8.0
 40
9.0
 40
9.0
 40
9.0
 40
10.0
 40
10.0
 40
10.0
 40
11.0
 40
11.0
 40
11.0
 40
12.0
 40
12.0
 40
12.0
 40
13.0
 40
13.0
 40
13.0
 40
14.0
 40
14.0
 40
14.0
 40
15.0
 40
15.0
 40
15.0
 40
16.0
 40
16.0
 40
16.0
 40
17.0
 40
17.0
 40
17.0
 40
17.0
 10
756.0336111933701
 20
-891.8149872987477
 10
755.0803532726014
 20
-885.0388289888098
 10
755.0553763303334
 20
-875.7443058791542
 10
751.4480168477284
 20
-871.003509981902
 10
748.4511282851095
 20
-867.0647323136158
 10
741.3831703875709
 20
-866.3460853953927
 10
735.2223061312986
 20
-866.7705211591755
 10
717.1219467065703
 20
-868.01902376303
 10
702.2668672289471
 20
-876.46467534512
 10
689.0142739162882
 20
-882.6437986074641
 10
688.3299056981432
 20
-890.3074135144024
 10
687.6791271609795
 20
-898.0044458475476
 10
687.2505572826145
 20
-905.9240313490399
 10
691.4856131626321
 20
-904.4012991445594
 10
699.8217107082911
 20
-899.6002140763153
 10
705.945540188097
 20
-902.3969425912411
 10
711.8237343598045
 20
-905.0813609933477
 10
712.3882132550627
 20
-917.1219697142959
 10
713.7056177686222
 20
-924.9719642869862
 10
718.0760659012102
 20
-951.0127520408927
 10
722.2568615273351
 20
-979.6979950892769
 10
723.9347952834261
 20
-1005.747740091445
 10
737.2249401368744
 20
-1000.578029806279
 10
752.0343720993178
 20
-996.9276066301085
 10
769.0848386749163
 20
-995.5185625766412
 10
785.9349729480475
 20
-973.8010251471748
 10
805.7132661288668
 20
-944.0729516954054
 10
819.1729096801895
 20
-915.8007755957026
 10
823.656012435145
 20
-906.3842961058692
 10
829.4916596776097
 20
-894.8073972372357
 10
830.4602482732878
 20
-883.7017874309843
 10
831.2877602088448
 20
-874.2174395600915
 10
828.8867009103999
 20
-868.7731551647512
 10
821.6421818692422
 20
-867.8288544922442
 10
806.146486886137
 20
-865.8093395187908
 10
790.9903060631032
 20
-873.5249753675563
 10
780.3723495227889
 20
-876.2944876281487
 10
780.011475770709
 20
-883.5763859553213
 10
778.6165566087313
 20
-889.8237221082733
 10
778.2558551114256
 20
-897.1059649449944
 10
794.8155678351503
 20
-892.3035018385561
 10
789.0167831143777
 20
-910.6066051325914
 10
785.6633271690356
 20
-919.3282088630499
 10
780.7923066624409
 20
-931.9958249623136
 10
774.4550535173238
 20
-943.5076115262759
 10
768.3792831195371
 20
-954.2487302301879
 10
767.1741887187968
 20
-956.3791772782664
 10
765.9258583697165
 20
-959.3884681846321
 10
763.44108325098
 20
-959.8924856541241
 10
761.4928817540713
 20
-938.4877628947183
 10
759.1223115506708
 20
-913.7671357307596
 10
756.0336111933701
 20
-891.8149872987477
 97
        0
 92
        1
 93
        1
 72
     4
 94
        3
 73
     0
 74
     1
 95
       80
 96
       76
 40
0.0
 40
0.0
 40
0.0
 40
0.0
 40
1.0
 40
1.0
 40
1.0
 40
2.0
 40
2.0
 40
2.0
 40
3.0
 40
3.0
 40
3.0
 40
4.0
 40
4.0
 40
4.0
 40
5.0
 40
5.0
 40
5.0
 40
6.0
 40
6.0
 40
6.0
 40
7.0
 40
7.0
 40
7.0
 40
8.0
 40
8.0
 40
8.0
 40
9.0
 40
9.0
 40
9.0
 40
10.0
 40
10.0
 40
10.0
 40
11.0
 40
11.0
 40
11.0
 40
12.0
 40
12.0
 40
12.0
 40
13.0
 40
13.0
 40
13.0
 40
14.0
 40
14.0
 40
14.0
 40
15.0
 40
15.0
 40
15.0
 40
16.0
 40
16.0
 40
16.0
 40
17.0
 40
17.0
 40
17.0
 40
18.0
 40
18.0
 40
18.0
 40
19.0
 40
19.0
 40
19.0
 40
20.0
 40
20.0
 40
20.0
 40
21.0
 40
21.0
 40
21.0
 40
22.0
 40
22.0
 40
22.0
 40
23.0
 40
23.0
 40
23.0
 40
24.0
 40
24.0
 40
24.0
 40
25.0
 40
25.0
 40
25.0
 40
25.0
 10
1085.134108886703
 20
-868.8871878253129
 10
1081.936715766842
 20
-866.6795706383649
 10
1077.476006132541
 20
-866.8008379994457
 10
1072.43583143762
 20
-867.123298936865
 10
1052.841850865262
 20
-868.376624674399
 10
1033.060457098506
 20
-877.1716089386932
 10
1019.525710465605
 20
-883.3490096532947
 10
1018.807752566479
 20
-891.2141626461201
 10
1017.98058514047
 20
-898.9704506216116
 10
1017.056610531326
 20
-906.629586904419
 10
1022.658335790342
 20
-906.0852618177496
 10
1029.674961765151
 20
-900.4483965847837
 10
1036.456976737413
 20
-903.4552759243098
 10
1041.61256213109
 20
-905.7407522692246
 10
1039.401844358205
 20
-920.2680309114261
 10
1038.926076671692
 20
-927.7934974894058
 10
1037.244181055793
 20
-954.3882565973405
 10
1033.342265909199
 20
-982.3090329575477
 10
1029.754887980409
 20
-1004.336628980687
 10
1045.914108353973
 20
-1000.272449836737
 10
1062.296226405433
 20
-996.4315128802324
 10
1080.195909018146
 20
-994.107451465883
 10
1080.074641657065
 20
-975.2262611494226
 10
1081.951529677429
 20
-956.1769501732822
 10
1083.370564507803
 20
-938.3754527818992
 10
1083.830140245536
 20
-932.6104299968822
 10
1083.571069065045
 20
-925.1014998772316
 10
1085.134108886703
 20
-920.3861976865702
 10
1086.499055717959
 20
-916.268964072148
 10
1093.348939071281
 20
-911.6291094726135
 10
1097.127175289954
 20
-909.0986868386976
 10
1101.389447424305
 20
-906.2444252291681
 10
1108.692016324389
 20
-901.6562470619124
 10
1114.410874829904
 20
-903.4552759243098
 10
1122.486867666427
 20
-905.995000316036
 10
1117.85459227696
 20
-926.0068709707552
 10
1116.880319273731
 20
-934.4955862464109
 10
1115.097137850566
 20
-950.0274547321112
 10
1113.883086201564
 20
-962.1445445728319
 10
1112.294552673315
 20
-977.176185194074
 10
1110.881029995717
 20
-990.5524574346535
 10
1109.902278368358
 20
-1001.196079936333
 10
1122.171296919978
 20
-1002.573429111336
 10
1132.627161717711
 20
-1003.746828633612
 10
1143.045819484204
 20
-1001.129245083919
 10
1152.153618418559
 20
-999.04565133444
 10
1161.55183890232
 20
-996.8959117516441
 10
1170.787450879178
 20
-994.619392654991
 10
1176.844962270893
 20
-989.874807152705
 10
1178.199573815693
 20
-982.4113522934597
 10
1178.916153676625
 20
-974.3091767312492
 10
1180.019617760551
 20
-966.5942299015807
 10
1175.154798425829
 20
-967.4761743458046
 10
1168.856474859696
 20
-974.624058458601
 10
1162.382795933363
 20
-971.5324297701378
 10
1158.127069480434
 20
-969.5005124529374
 10
1159.659103442724
 20
-956.3557506289667
 10
1160.266473776774
 20
-950.7212969628406
 10
1162.073770868336
 20
-933.9505721406443
 10
1163.874177768927
 20
-923.1805146346563
 10
1165.91022920071
 20
-906.9823646821086
 10
1166.862798102381
 20
-899.4024655954619
 10
1168.618763271213
 20
-891.1459497555122
 10
1168.026551357299
 20
-884.4073429863635
 10
1167.161487880953
 20
-874.5633271468106
 10
1161.258661276526
 20
-868.0204018012241
 10
1152.506396196248
 20
-867.123298936865
 10
1138.84487004949
 20
-865.7239011507565
 10
1125.122365712643
 20
-870.4919133023424
 10
1114.763652607594
 20
-875.2364988046285
 10
1103.785166824748
 20
-880.2649601748991
 10
1094.845488550073
 20
-887.7160126903974
 10
1087.250431043292
 20
-893.2257538999575
 10
1087.953575031831
 20
-885.056054466236
 10
1091.099291719413
 20
-873.0057994779291
 10
1085.134108886703
 20
-868.8871878253129
 97
        0
 92
        1
 93
        1
 72
     4
 94
        3
 73
     0
 74
     1
 95
       23
 96
       19
 40
0.0
 40
0.0
 40
0.0
 40
0.0
 40
1.0
 40
1.0
 40
1.0
 40
2.0
 40
2.0
 40
2.0
 40
3.0
 40
3.0
 40
3.0
 40
4.0
 40
4.0
 40
4.0
 40
5.0
 40
5.0
 40
5.0
 40
6.0
 40
6.0
 40
6.0
 40
6.0
 10
1470.671988564624
 20
-897.1059649449944
 10
1469.083110526826
 20
-875.2640595685104
 10
1451.577891347175
 20
-867.7620196398303
 10
1427.991389616961
 20
-867.123298936865
 10
1426.637467091257
 20
-875.5286429017776
 10
1426.35428024237
 20
-885.0047225435057
 10
1425.169511904992
 20
-893.5785316776471
 10
1431.772726421571
 20
-894.2468802017855
 10
1432.758368239901
 20
-903.3319415059378
 10
1432.224033930139
 20
-909.4514646163872
 10
1431.094731630074
 20
-922.3846975775635
 10
1421.18319191901
 20
-930.6164087300195
 10
1407.179912300115
 20
-930.2629419332329
 10
1406.983197347907
 20
-937.5072887196163
 10
1406.172910889776
 20
-944.266221552128
 10
1406.827134522425
 20
-951.4268525182197
 10
1443.109502134882
 20
-951.4220293845403
 10
1473.335736393819
 20
-933.7231958386178
 10
1470.671988564624
 20
-897.1059649449944
 97
        0
 92
        1
 93
        1
 72
     4
 94
        3
 73
     0
 74
     1
 95
       47
 96
       43
 40
0.0
 40
0.0
 40
0.0
 40
0.0
 40
1.0
 40
1.0
 40
1.0
 40
2.0
 40
2.0
 40
2.0
 40
3.0
 40
3.0
 40
3.0
 40
4.0
 40
4.0
 40
4.0
 40
5.0
 40
5.0
 40
5.0
 40
6.0
 40
6.0
 40
6.0
 40
7.0
 40
7.0
 40
7.0
 40
8.0
 40
8.0
 40
8.0
 40
9.0
 40
9.0
 40
9.0
 40
10.0
 40
10.0
 40
10.0
 40
11.0
 40
11.0
 40
11.0
 40
12.0
 40
12.0
 40
12.0
 40
13.0
 40
13.0
 40
13.0
 40
14.0
 40
14.0
 40
14.0
 40
14.0
 10
1281.959648659545
 20
-867.8288544922442
 10
1254.864661687152
 20
-869.4005070526152
 10
1239.598065553816
 20
-877.7996498456542
 10
1226.93320553094
 20
-894.2837427234778
 10
1215.193698155403
 20
-909.5634302196578
 10
1208.679367102344
 20
-931.7501896542153
 10
1210.707494814511
 20
-959.1869300987449
 10
1212.530294835756
 20
-983.8520912253912
 10
1227.120618725338
 20
-998.1609508138279
 10
1249.507882717137
 20
-1001.867873555957
 10
1267.486458016462
 20
-1004.844436055213
 10
1289.10546571505
 20
-1001.609491394563
 10
1303.476337022221
 20
-996.57689590971
 10
1306.50354242511
 20
-995.5164955193501
 10
1315.149698564442
 20
-993.0797794826328
 10
1316.880170026683
 20
-989.5220293750153
 10
1318.57653504362
 20
-986.0342147057485
 10
1317.808623259958
 20
-980.1234643817053
 10
1318.290936627893
 20
-975.7654185928642
 10
1318.815969179845
 20
-971.0239336765148
 10
1319.578713320279
 20
-966.723076472729
 10
1320.054825516341
 20
-962.3615855884027
 10
1309.338166990374
 20
-969.3110322012486
 10
1295.695244359236
 20
-977.7914792477396
 10
1279.490548725266
 20
-976.1181963705538
 10
1266.65550098542
 20
-974.7928681373783
 10
1259.614759342214
 20
-963.7885441383931
 10
1258.679071408421
 20
-950.7212969628406
 10
1257.048163205703
 20
-927.940603066626
 10
1262.281263247798
 20
-901.1649764457158
 10
1276.668671013298
 20
-893.9309649457881
 10
1291.877734052031
 20
-886.2842310067276
 10
1302.044210829003
 20
-899.1116995365069
 10
1300.654459310253
 20
-915.0952200403235
 10
1307.664195094091
 20
-914.1095782219935
 10
1315.813912973998
 20
-914.2639184997327
 10
1323.229481005998
 20
-913.6844534391137
 10
1324.449044807777
 20
-899.031084302152
 10
1326.378642789065
 20
-885.0874048351518
 10
1329.225669698076
 20
-872.0614988054222
 10
1315.276133568751
 20
-867.8026717665563
 10
1298.88953689316
 20
-866.847002278948
 10
1281.959648659545
 20
-867.8288544922442
 97
        0
 92
        1
 93
        1
 72
     4
 94
        3
 73
     0
 74
     1
 95
       38
 96
       34
 40
0.0
 40
0.0
 40
0.0
 40
0.0
 40
1.0
 40
1.0
 40
1.0
 40
2.0
 40
2.0
 40
2.0
 40
3.0
 40
3.0
 40
3.0
 40
4.0
 40
4.0
 40
4.0
 40
5.0
 40
5.0
 40
5.0
 40
6.0
 40
6.0
 40
6.0
 40
7.0
 40
7.0
 40
7.0
 40
8.0
 40
8.0
 40
8.0
 40
9.0
 40
9.0
 40
9.0
 40
10.0
 40
10.0
 40
10.0
 40
11.0
 40
11.0
 40
11.0
 40
11.0
 10
514.0583725385861
 20
-935.5539195794796
 10
510.9272975068168
 20
-958.0193872387938
 10
512.3473658658368
 20
-981.9176701104234
 10
525.3458833864587
 20
-994.813007021262
 10
535.8165620947785
 20
-1005.200658928387
 10
555.3330280187189
 20
-1004.295976853961
 10
568.732037889501
 20
-997.2821069555406
 10
572.6761554557893
 20
-995.2174612312305
 10
581.4415118989104
 20
-989.8972002733591
 10
582.8414264493417
 20
-985.9949406172166
 10
584.1624483131608
 20
-982.3121335434845
 10
583.8510116812943
 20
-977.1424232583186
 10
584.2523653053258
 20
-972.9435408808961
 10
584.6826577314336
 20
-968.4401120625776
 10
584.7546602270753
 20
-964.0899899933526
 10
585.3105263836203
 20
-959.5397078764346
 10
581.241696360766
 20
-961.5702471554408
 10
575.4174179334026
 20
-967.6553193110376
 10
567.6738768112066
 20
-965.1834633003708
 10
562.7380885094891
 20
-963.6080211349661
 10
561.0205361553178
 20
-956.7074948780107
 10
560.6191825312862
 20
-950.7212969628406
 10
559.3455307303893
 20
-931.7250404571729
 10
565.0295937715031
 20
-906.0439206719266
 10
575.7867321694214
 20
-897.458742722684
 10
579.5727198529368
 20
-894.4367049630229
 10
585.626613894392
 20
-892.0513208490358
 10
591.3068873304719
 20
-893.9309649457881
 10
592.0062417139776
 20
-885.3416528819632
 10
592.8518404008322
 20
-876.898412866713
 10
593.7759872647505
 20
-868.5344100476234
 10
544.0393159989728
 20
-863.0952932955109
 10
519.8256346356686
 20
-894.1721216297556
 10
514.0583725385861
 20
-935.5539195794796
 97
        0
 92
        1
 93
        1
 72
     4
 94
        3
 73
     0
 74
     1
 95
       29
 96
       25
 40
0.0
 40
0.0
 40
0.0
 40
0.0
 40
1.0
 40
1.0
 40
1.0
 40
2.0
 40
2.0
 40
2.0
 40
3.0
 40
3.0
 40
3.0
 40
4.0
 40
4.0
 40
4.0
 40
5.0
 40
5.0
 40
5.0
 40
6.0
 40
6.0
 40
6.0
 40
7.0
 40
7.0
 40
7.0
 40
8.0
 40
8.0
 40
8.0
 40
8.0
 10
1353.917358059958
 20
-915.8007755957026
 10
1344.643850032763
 20
-944.2272919731446
 10
1344.697938031881
 20
-983.7604516854835
 10
1369.437513221009
 20
-996.57689590971
 10
1394.343142012525
 20
-1009.479467521068
 10
1438.817602179358
 20
-1002.099383972566
 10
1458.67926667092
 20
-990.9331404857737
 10
1459.351749309641
 20
-981.6114011217846
 10
1460.123106188789
 20
-972.3885359982223
 10
1460.795588827509
 20
-963.0671411437819
 10
1450.279779368333
 20
-970.1943546836667
 10
1423.229923146797
 20
-983.0076983219565
 10
1406.474356744736
 20
-974.3546519916545
 10
1393.427435632546
 20
-967.6163897320542
 10
1393.907337433641
 20
-947.0433130227879
 10
1396.245179229932
 20
-928.499053044785
 10
1398.279163604423
 20
-912.364292849166
 10
1403.184290556322
 20
-898.355156567946
 10
1413.88200105712
 20
-893.5785316776471
 10
1414.345021890337
 20
-885.3068574175622
 10
1416.593291204011
 20
-874.7931150156768
 10
1415.998323213709
 20
-867.8288544922442
 10
1382.524052931279
 20
-869.8959117833941
 10
1362.520450505724
 20
-889.4275361274696
 10
1353.917358059958
 20
-915.8007755957026
 97
        0
 92
        1
 93
        1
 72
     4
 94
        3
 73
     0
 74
     1
 95
       38
 96
       34
 40
0.0
 40
0.0
 40
0.0
 40
0.0
 40
1.0
 40
1.0
 40
1.0
 40
2.0
 40
2.0
 40
2.0
 40
3.0
 40
3.0
 40
3.0
 40
4.0
 40
4.0
 40
4.0
 40
5.0
 40
5.0
 40
5.0
 40
6.0
 40
6.0
 40
6.0
 40
7.0
 40
7.0
 40
7.0
 40
8.0
 40
8.0
 40
8.0
 40
9.0
 40
9.0
 40
9.0
 40
10.0
 40
10.0
 40
10.0
 40
11.0
 40
11.0
 40
11.0
 40
11.0
 10
1497.479654573547
 20
-935.5539195794796
 10
1494.348407287003
 20
-958.0193872387938
 10
1495.768820155572
 20
-981.9180146199719
 10
1508.767165421419
 20
-994.813007021262
 10
1519.237499620191
 20
-1005.19996990929
 10
1538.754999072777
 20
-1004.296665873058
 10
1552.15366443401
 20
-997.2821069555406
 10
1556.097954255073
 20
-995.2171167216819
 10
1564.862621679097
 20
-989.8975447829076
 10
1566.262708484302
 20
-985.9949406172166
 10
1567.584247112444
 20
-982.3128225625816
 10
1567.272810480578
 20
-977.1420787487701
 10
1567.673819595061
 20
-972.9435408808961
 10
1568.10376751162
 20
-968.4401120625776
 10
1568.176459026359
 20
-964.0899899933526
 10
1568.73215292813
 20
-959.5397078764346
 10
1564.663150650501
 20
-961.5702471554408
 10
1558.838872223138
 20
-967.6553193110376
 10
1551.095331100942
 20
-965.1834633003708
 10
1546.159542799224
 20
-963.6080211349661
 10
1544.441818190279
 20
-956.7074948780107
 10
1544.040464566247
 20
-950.7212969628406
 10
1542.767157274899
 20
-931.7250404571729
 10
1548.450531296915
 20
-906.0432316528295
 10
1559.208186459156
 20
-897.458742722684
 10
1562.990556792412
 20
-894.440150058508
 10
1569.050479750967
 20
-892.0485647726476
 10
1574.728341620207
 20
-893.9309649457881
 10
1575.427696003713
 20
-885.3416528819632
 10
1576.273122435793
 20
-876.898412866713
 10
1577.197441554486
 20
-868.5344100476234
 10
1527.460598033934
 20
-863.0952932955109
 10
1503.247433434952
 20
-894.1721216297556
 10
1497.479654573547
 20
-935.5539195794796
 97
        0
 92
        1
 93
        1
 72
     4
 94
        3
 73
     0
 74
     1
 95
       32
 96
       28
 40
0.0
 40
0.0
 40
0.0
 40
0.0
 40
1.0
 40
1.0
 40
1.0
 40
2.0
 40
2.0
 40
2.0
 40
3.0
 40
3.0
 40
3.0
 40
4.0
 40
4.0
 40
4.0
 40
5.0
 40
5.0
 40
5.0
 40
6.0
 40
6.0
 40
6.0
 40
7.0
 40
7.0
 40
7.0
 40
8.0
 40
8.0
 40
8.0
 40
9.0
 40
9.0
 40
9.0
 40
9.0
 10
411.7655638619024
 20
-919.3282088630499
 10
377.2338215202749
 20
-925.3798635924398
 10
338.6158514235926
 20
-933.1692244845897
 10
341.9243488728522
 20
-976.1181963705538
 10
342.9530543847479
 20
-989.4720754904793
 10
351.4586506282812
 20
-1001.696307800791
 10
367.6738538034809
 20
-1002.925862379477
 10
385.7824814573738
 20
-1004.299421949446
 10
395.8156330390669
 20
-996.6347735138622
 10
407.1799695162606
 20
-989.874807152705
 10
407.4671182249562
 20
-982.8719615598376
 10
408.1807697547256
 20
-976.2956187880442
 10
408.5910806270189
 20
-969.4164521230973
 10
404.7213771232121
 20
-970.3335365412709
 10
400.6334268204146
 20
-974.6337047259597
 10
394.1289142894886
 20
-973.2963186585857
 10
385.1101710734274
 20
-971.4414792493271
 10
385.4074828138044
 20
-954.546730989662
 10
390.9542587998309
 20
-947.8994192508724
 10
395.8459498793371
 20
-942.0369002636228
 10
404.1822196797704
 20
-941.7247746126591
 10
411.0601805612975
 20
-940.1393416703471
 10
411.2238225968468
 20
-933.4727373968402
 10
413.4986191457573
 20
-925.1910723598481
 10
412.118341639592
 20
-919.3282088630499
 10
412.0006916287707
 20
-919.3282088630499
 10
411.8832138727237
 20
-919.3282088630499
 10
411.7655638619024
 20
-919.3282088630499
 97
        0
 92
        1
 93
        1
 72
     4
 94
        3
 73
     0
 74
     1
 95
       32
 96
       28
 40
0.0
 40
0.0
 40
0.0
 40
0.0
 40
1.0
 40
1.0
 40
1.0
 40
2.0
 40
2.0
 40
2.0
 40
3.0
 40
3.0
 40
3.0
 40
4.0
 40
4.0
 40
4.0
 40
5.0
 40
5.0
 40
5.0
 40
6.0
 40
6.0
 40
6.0
 40
7.0
 40
7.0
 40
7.0
 40
8.0
 40
8.0
 40
8.0
 40
9.0
 40
9.0
 40
9.0
 40
9.0
 10
918.9964461678204
 20
-919.3282088630499
 10
884.463498042773
 20
-925.3798635924398
 10
845.8488007868017
 20
-933.1692244845897
 10
849.1554034335445
 20
-976.1181963705538
 10
850.183419926343
 20
-989.4720754904793
 10
858.690049698522
 20
-1001.696307800791
 10
874.9047361093989
 20
-1002.925862379477
 10
893.0135360180661
 20
-1004.299421949446
 10
903.0463430902107
 20
-996.6347735138622
 10
914.4110240769528
 20
-989.874807152705
 10
914.6980005308742
 20
-982.8719615598376
 10
915.4114798058694
 20
-976.2956187880442
 10
915.8221351877112
 20
-969.4164521230973
 10
911.9526039386785
 20
-970.3335365412709
 10
907.8646536358812
 20
-974.6337047259597
 10
901.3599688501808
 20
-973.2963186585857
 10
892.3410533793453
 20
-971.4414792493271
 10
892.6387096292709
 20
-954.546730989662
 10
898.1853133605232
 20
-947.8994192508724
 10
903.0770044400294
 20
-942.0369002636228
 10
911.4131019856884
 20
-941.7247746126591
 10
918.2908906124412
 20
-940.1393416703471
 10
918.454877157539
 20
-933.4727373968402
 10
920.7296737064496
 20
-925.1910723598481
 10
919.34922394551
 20
-919.3282088630499
 10
919.2320906990115
 20
-919.3282088630499
 10
919.1142684334159
 20
-919.3282088630499
 10
918.9964461678204
 20
-919.3282088630499
 97
        0
 92
        1
 93
        1
 72
     4
 94
        3
 73
     0
 74
     1
 95
       80
 96
       76
 40
0.0
 40
0.0
 40
0.0
 40
0.0
 40
1.0
 40
1.0
 40
1.0
 40
2.0
 40
2.0
 40
2.0
 40
3.0
 40
3.0
 40
3.0
 40
4.0
 40
4.0
 40
4.0
 40
5.0
 40
5.0
 40
5.0
 40
6.0
 40
6.0
 40
6.0
 40
7.0
 40
7.0
 40
7.0
 40
8.0
 40
8.0
 40
8.0
 40
9.0
 40
9.0
 40
9.0
 40
10.0
 40
10.0
 40
10.0
 40
11.0
 40
11.0
 40
11.0
 40
12.0
 40
12.0
 40
12.0
 40
13.0
 40
13.0
 40
13.0
 40
14.0
 40
14.0
 40
14.0
 40
15.0
 40
15.0
 40
15.0
 40
16.0
 40
16.0
 40
16.0
 40
17.0
 40
17.0
 40
17.0
 40
18.0
 40
18.0
 40
18.0
 40
19.0
 40
19.0
 40
19.0
 40
20.0
 40
20.0
 40
20.0
 40
21.0
 40
21.0
 40
21.0
 40
22.0
 40
22.0
 40
22.0
 40
23.0
 40
23.0
 40
23.0
 40
24.0
 40
24.0
 40
24.0
 40
25.0
 40
25.0
 40
25.0
 40
25.0
 10
895.7162134262446
 20
-1047.370350215588
 10
896.4589760128645
 20
-1040.824324284065
 10
897.9048825880238
 20
-1034.241091321301
 10
897.1269800274544
 20
-1027.969984009501
 10
896.1230792030526
 20
-1019.873320600066
 10
890.4813908364075
 20
-1017.104497358571
 10
881.2540470887143
 20
-1017.740806494697
 10
861.7837454442763
 20
-1019.083360205299
 10
843.6516911410837
 20
-1025.502606622965
 10
827.28559278363
 20
-1030.086650675638
 10
826.3326793724099
 20
-1037.716503646821
 10
825.5194645831167
 20
-1045.486227494705
 10
824.8164928493514
 20
-1053.366883417214
 10
830.6831459511834
 20
-1052.238959155343
 10
837.1594086991304
 20
-1050.032375497041
 10
844.2170313102131
 20
-1051.250561260625
 10
848.6434622444364
 20
-1056.190828186473
 10
847.1224525876986
 20
-1064.028420415417
 10
846.6861312444917
 20
-1070.650582957164
 10
843.4098454380191
 20
-1120.383292363133
 10
838.3328082214064
 20
-1169.867954894165
 10
832.2241371617357
 20
-1215.977112868749
 10
848.1573592714676
 20
-1211.216679927231
 10
864.889499024229
 20
-1207.254820119193
 10
882.312380421783
 20
-1203.984046465497
 10
882.2331432256223
 20
-1185.169691001451
 10
884.482446067942
 20
-1166.145184712804
 10
885.8394691795818
 20
-1148.252047781514
 10
886.2356551603856
 20
-1143.034106159554
 10
885.6265622785934
 20
-1136.420900866068
 10
886.8978025126506
 20
-1132.379114842773
 10
888.1139212189438
 20
-1128.513028689226
 10
895.487459086024
 20
-1123.945521094882
 10
899.2436466935919
 20
-1121.44438177259
 10
903.534168610922
 20
-1118.587019577124
 10
910.3099824113115
 20
-1113.446248094034
 10
916.1749129654007
 20
-1115.447848570964
 10
923.2986814098003
 20
-1117.878707945357
 10
919.5555851650764
 20
-1135.575474433988
 10
918.6436683901308
 20
-1143.666625690646
 10
917.115424032874
 20
-1157.231344654269
 10
915.6150849490476
 20
-1169.963728548655
 10
914.0582462992633
 20
-1183.525691435889
 10
912.5141545027743
 20
-1196.977411267596
 10
908.9102401156545
 20
-1212.595407140428
 10
922.5238794351677
 20
-1214.213223980301
 10
933.5702335990727
 20
-1215.526494379278
 10
944.5463078150788
 20
-1213.230682747908
 10
953.5645342668172
 20
-1211.038913000192
 10
962.7842988044429
 20
-1208.798222896585
 10
971.3143552259214
 20
-1205.654228756746
 10
978.6086558968409
 20
-1201.515291040767
 10
979.6497637524834
 20
-1193.620510226769
 10
980.4166420075001
 20
-1185.451499812144
 10
981.4305336088091
 20
-1177.529158234264
 10
976.3255911187658
 20
-1178.797642391933
 10
970.2573999310468
 20
-1183.960462486128
 10
962.3826006708628
 20
-1182.467358102821
 10
958.815548805435
 20
-1175.970597036737
 10
961.2643226763506
 20
-1168.254272168874
 10
962.0301674027216
 20
-1161.303447517834
 10
963.6752004969285
 20
-1146.373781722955
 10
965.1745060521092
 20
-1132.332261544174
 10
966.9683672712788
 20
-1117.564515237102
 10
967.8775279698363
 20
-1110.079011766751
 10
969.8770613894752
 20
-1102.069853782642
 10
969.0846894278677
 20
-1094.989493541357
 10
968.0049965027905
 20
-1085.338403048978
 10
960.8922523639436
 20
-1079.610587295202
 10
951.8006453783694
 20
-1078.763782824927
 10
926.5363821468382
 20
-1076.409404570308
 10
903.9358667445022
 20
-1094.749714895584
 10
889.3669024469292
 20
-1103.454782167713
 10
891.5714190479405
 20
-1085.538907606219
 10
893.6591469120019
 20
-1065.497409130327
 10
895.7162134262446
 20
-1047.370350215588
 97
        0
 92
        1
 93
        1
 72
     4
 94
        3
 73
     0
 74
     1
 95
       20
 96
       16
 40
0.0
 40
0.0
 40
0.0
 40
0.0
 40
1.0
 40
1.0
 40
1.0
 40
2.0
 40
2.0
 40
2.0
 40
3.0
 40
3.0
 40
3.0
 40
4.0
 40
4.0
 40
4.0
 40
5.0
 40
5.0
 40
5.0
 40
5.0
 10
1036.104198959724
 20
-1030.086650675638
 10
1031.722382012035
 20
-1034.721337631945
 10
1027.433238132899
 20
-1048.96508491571
 10
1033.987876803135
 20
-1056.894316684561
 10
1042.546183007593
 20
-1067.246828617737
 10
1064.475249299853
 20
-1066.097544763858
 10
1074.904931371899
 20
-1057.952305508082
 10
1082.599207628656
 20
-1051.94302545316
 10
1086.139732258847
 20
-1036.850406641829
 10
1079.490353462766
 20
-1028.67553956488
 10
1074.929391549844
 20
-1023.067957643539
 10
1065.852942984405
 20
-1021.24343507455
 10
1055.151787388122
 20
-1022.326228585564
 10
1046.801564950973
 20
-1023.170965998548
 10
1040.872900130407
 20
-1025.042341866135
 10
1036.104198959724
 20
-1030.086650675638
 97
        0
 92
        1
 93
        1
 72
     4
 94
        3
 73
     0
 74
     1
 95
       53
 96
       49
 40
0.0
 40
0.0
 40
0.0
 40
0.0
 40
1.0
 40
1.0
 40
1.0
 40
2.0
 40
2.0
 40
2.0
 40
3.0
 40
3.0
 40
3.0
 40
4.0
 40
4.0
 40
4.0
 40
5.0
 40
5.0
 40
5.0
 40
6.0
 40
6.0
 40
6.0
 40
7.0
 40
7.0
 40
7.0
 40
8.0
 40
8.0
 40
8.0
 40
9.0
 40
9.0
 40
9.0
 40
10.0
 40
10.0
 40
10.0
 40
11.0
 40
11.0
 40
11.0
 40
12.0
 40
12.0
 40
12.0
 40
13.0
 40
13.0
 40
13.0
 40
14.0
 40
14.0
 40
14.0
 40
15.0
 40
15.0
 40
15.0
 40
16.0
 40
16.0
 40
16.0
 40
16.0
 10
647.7444415698347
 20
-1182.467358102821
 10
643.1783120136846
 20
-1180.571177547739
 10
643.6985214319574
 20
-1170.1166907882
 10
644.2170083024874
 20
-1163.419425164874
 10
644.8359197064126
 20
-1155.428181677289
 10
645.7225150295416
 20
-1148.266517182552
 10
646.3335027138506
 20
-1142.255514579888
 10
647.9444293627535
 20
-1126.400496137671
 10
653.8238293178808
 20
-1098.029445797541
 10
644.569786080177
 20
-1087.934627006662
 10
637.117700036033
 20
-1079.805579699667
 10
615.738298728444
 20
-1075.656306697232
 10
598.7143593880819
 20
-1077.705449491858
 10
577.2505532411041
 20
-1080.289271105796
 10
554.8639782684021
 20
-1080.691658258473
 10
537.3387775349362
 20
-1089.345738117421
 10
536.404812148885
 20
-1099.581805823195
 10
535.760407038369
 20
-1110.10726154973
 10
534.1641220452784
 20
-1119.680492884142
 10
542.190850016362
 20
-1120.355042580154
 10
551.3420571538312
 20
-1119.904424090684
 10
559.9137992306813
 20
-1120.033270661832
 10
563.0948281469867
 20
-1113.645374613082
 10
565.225102940291
 20
-1108.840155430255
 10
571.2011378237796
 20
-1104.865893278471
 10
576.6249239009827
 20
-1101.258878305415
 10
589.8191228451668
 20
-1097.982592498942
 10
597.3034205320978
 20
-1102.397137853741
 10
605.0626368387517
 20
-1106.97291367725
 10
602.580962305952
 20
-1123.166929515215
 10
601.53623710005
 20
-1135.20133706429
 10
600.2674084328324
 20
-1149.816121131817
 10
598.9196870790028
 20
-1164.739585754822
 10
597.6561983097873
 20
-1179.293047122711
 10
596.9761364609991
 20
-1187.12719425617
 10
595.5279905737743
 20
-1194.947561007687
 10
596.2450871990291
 20
-1201.86737979936
 10
597.0891355929152
 20
-1210.008829450102
 10
602.4143919392402
 20
-1213.581393468306
 10
610.0018702359545
 20
-1214.213223980301
 10
631.0143688743644
 20
-1215.962643467711
 10
650.9650890842206
 20
-1208.237361351587
 10
665.3810911422485
 20
-1201.86737979936
 10
665.8120725874533
 20
-1193.83272810866
 10
666.5022974679231
 20
-1186.057836617548
 10
666.7920299982326
 20
-1177.881936011953
 10
662.1886934108418
 20
-1178.588869605526
 10
655.001190699965
 20
-1185.481127633317
 10
647.7444415698347
 20
-1182.467358102821
 97
        0
 92
        1
 93
        1
 72
     4
 94
        3
 73
     0
 74
     1
 95
       74
 96
       70
 40
0.0
 40
0.0
 40
0.0
 40
0.0
 40
1.0
 40
1.0
 40
1.0
 40
2.0
 40
2.0
 40
2.0
 40
3.0
 40
3.0
 40
3.0
 40
4.0
 40
4.0
 40
4.0
 40
5.0
 40
5.0
 40
5.0
 40
6.0
 40
6.0
 40
6.0
 40
7.0
 40
7.0
 40
7.0
 40
8.0
 40
8.0
 40
8.0
 40
9.0
 40
9.0
 40
9.0
 40
10.0
 40
10.0
 40
10.0
 40
11.0
 40
11.0
 40
11.0
 40
12.0
 40
12.0
 40
12.0
 40
13.0
 40
13.0
 40
13.0
 40
14.0
 40
14.0
 40
14.0
 40
15.0
 40
15.0
 40
15.0
 40
16.0
 40
16.0
 40
16.0
 40
17.0
 40
17.0
 40
17.0
 40
18.0
 40
18.0
 40
18.0
 40
19.0
 40
19.0
 40
19.0
 40
20.0
 40
20.0
 40
20.0
 40
21.0
 40
21.0
 40
21.0
 40
22.0
 40
22.0
 40
22.0
 40
23.0
 40
23.0
 40
23.0
 40
23.0
 10
1651.624595398726
 20
-1101.691582298362
 10
1650.178344314018
 20
-1093.90980061628
 10
1648.218429492459
 20
-1081.694181044681
 10
1642.100628929753
 20
-1079.116560602617
 10
1639.207782250788
 20
-1077.896996800838
 10
1635.729958358429
 20
-1078.19327501257
 10
1632.57666246078
 20
-1078.411005047237
 10
1623.920515544541
 20
-1079.007695585283
 10
1615.135522057154
 20
-1081.658352051634
 10
1607.532885340304
 20
-1084.760316026553
 10
1600.293706197149
 20
-1087.713451876509
 10
1593.224714770965
 20
-1090.932549097927
 10
1588.132174624668
 20
-1095.342271319046
 10
1587.262288014643
 20
-1102.585240067236
 10
1586.732087819463
 20
-1110.167206211174
 10
1586.368630245769
 20
-1117.917293014792
 10
1589.819237883795
 20
-1117.052574047994
 10
1593.732521845491
 20
-1112.65318711333
 10
1599.419685472541
 20
-1113.683959682517
 10
1605.848578157566
 20
-1114.849779994725
 10
1608.437222905182
 20
-1128.464108333335
 10
1610.354418542724
 20
-1135.20133706429
 10
1617.631149226669
 20
-1160.767390660329
 10
1622.660988635133
 20
-1190.197463352624
 10
1627.638462592222
 20
-1215.27155731337
 10
1632.929440238469
 20
-1215.27155731337
 10
1638.220417884716
 20
-1215.27155731337
 10
1643.511395530963
 20
-1215.27155731337
 10
1632.30553344609
 20
-1231.001174279923
 10
1618.683970406961
 20
-1245.786835083519
 10
1604.358229850647
 20
-1257.952156261033
 10
1602.472384582021
 20
-1259.554125661674
 10
1599.098602573316
 20
-1260.952834428685
 10
1599.066907694851
 20
-1263.948689462659
 10
1614.735546471316
 20
-1267.563283645783
 10
1629.938752847724
 20
-1271.642965719416
 10
1643.864173308652
 20
-1277.000089198979
 10
1659.905571416621
 20
-1249.657055351648
 10
1676.136449776278
 20
-1221.798635219724
 10
1692.894083235631
 20
-1188.463891304447
 10
1704.040345168608
 20
-1166.291945780476
 10
1716.412716584786
 20
-1142.76883380719
 10
1724.993071400349
 20
-1117.211737459412
 10
1727.800135201731
 20
-1108.849801697614
 10
1732.049315973238
 20
-1098.087323401694
 10
1730.636826824285
 20
-1088.287404784352
 10
1729.195054363708
 20
-1078.286981609769
 10
1720.250897464903
 20
-1077.64205973493
 10
1709.120138461609
 20
-1078.763782824927
 10
1695.255007171672
 20
-1080.161113553745
 10
1683.993334539939
 20
-1083.945206434743
 10
1674.552050362612
 20
-1088.640182562041
 10
1674.240958240294
 20
-1095.737079261656
 10
1671.986487754747
 20
-1102.769897185245
 10
1672.435728206023
 20
-1109.451315369339
 10
1675.344077814671
 20
-1108.289629171712
 10
1679.465790053224
 20
-1106.688348790168
 10
1683.017683498517
 20
-1108.04020425858
 10
1689.391454655777
 20
-1110.467618537487
 10
1686.279499903951
 20
-1123.206892622844
 10
1684.781227877416
 20
-1129.204803862664
 10
1679.963606350843
 20
-1148.493893484578
 10
1672.904261192017
 20
-1162.76416800358
 10
1666.086417226708
 20
-1178.587491567332
 10
1664.753854293013
 20
-1181.679809274893
 10
1664.219864492799
 20
-1185.881447728703
 10
1661.148217358151
 20
-1187.405557971378
 10
1658.695309372653
 20
-1158.752698820555
 10
1656.681995571073
 20
-1128.903013498156
 10
1651.624595398726
 20
-1101.691582298362
 97
        0
 92
        1
 93
        1
 72
     4
 94
        3
 73
     0
 74
     1
 95
      104
 96
      100
 40
0.0
 40
0.0
 40
0.0
 40
0.0
 40
1.0
 40
1.0
 40
1.0
 40
2.0
 40
2.0
 40
2.0
 40
3.0
 40
3.0
 40
3.0
 40
4.0
 40
4.0
 40
4.0
 40
5.0
 40
5.0
 40
5.0
 40
6.0
 40
6.0
 40
6.0
 40
7.0
 40
7.0
 40
7.0
 40
8.0
 40
8.0
 40
8.0
 40
9.0
 40
9.0
 40
9.0
 40
10.0
 40
10.0
 40
10.0
 40
11.0
 40
11.0
 40
11.0
 40
12.0
 40
12.0
 40
12.0
 40
13.0
 40
13.0
 40
13.0
 40
14.0
 40
14.0
 40
14.0
 40
15.0
 40
15.0
 40
15.0
 40
16.0
 40
16.0
 40
16.0
 40
17.0
 40
17.0
 40
17.0
 40
18.0
 40
18.0
 40
18.0
 40
19.0
 40
19.0
 40
19.0
 40
20.0
 40
20.0
 40
20.0
 40
21.0
 40
21.0
 40
21.0
 40
22.0
 40
22.0
 40
22.0
 40
23.0
 40
23.0
 40
23.0
 40
24.0
 40
24.0
 40
24.0
 40
25.0
 40
25.0
 40
25.0
 40
26.0
 40
26.0
 40
26.0
 40
27.0
 40
27.0
 40
27.0
 40
28.0
 40
28.0
 40
28.0
 40
29.0
 40
29.0
 40
29.0
 40
30.0
 40
30.0
 40
30.0
 40
31.0
 40
31.0
 40
31.0
 40
32.0
 40
32.0
 40
32.0
 40
33.0
 40
33.0
 40
33.0
 40
33.0
 10
323.229538222144
 20
-1081.232538249657
 10
320.6217731945841
 20
-1078.62528998642
 10
315.3609401338334
 20
-1078.406181913558
 10
310.1783107405978
 20
-1078.763782824927
 10
300.5337659296409
 20
-1079.427997234483
 10
291.403057110309
 20
-1082.31567627022
 10
282.312311398606
 20
-1085.465871581932
 10
273.5688313118162
 20
-1088.495488551661
 10
265.0918293608104
 20
-1091.452758516199
 10
259.3846841799455
 20
-1095.695049096736
 10
258.5466647031585
 20
-1102.96971272339
 10
257.9380885856891
 20
-1110.473819709361
 10
257.6209675462719
 20
-1118.270070792481
 10
262.3409206158384
 20
-1117.468052563515
 10
269.8309027103201
 20
-1112.117130255825
 10
275.2576171186856
 20
-1115.447848570964
 10
279.7482990837088
 20
-1118.204613978261
 10
277.5019245725516
 20
-1132.971671266236
 10
277.0213337523593
 20
-1140.139536932847
 10
275.2608899593966
 20
-1166.39598766413
 10
271.6633489989244
 20
-1193.477194254582
 10
269.2610839170598
 20
-1216.329890646438
 10
283.9301282384793
 20
-1211.716218772592
 10
299.5693114485452
 20
-1208.071996768295
 10
316.527449465139
 20
-1205.747935353945
 10
316.544502687791
 20
-1180.809578155319
 10
319.7494750177189
 20
-1156.081371781292
 10
321.8184271113857
 20
-1132.026337065084
 10
325.1260632867741
 20
-1128.298054730946
 10
327.9500080560334
 20
-1124.662789974911
 10
332.4005546586533
 20
-1121.091603994901
 10
335.4358560359327
 20
-1118.655921486829
 10
342.2485323580142
 20
-1113.24643255589
 10
347.9208820744781
 20
-1114.742293015585
 10
350.8819416440504
 20
-1115.52364067164
 10
352.3836587660708
 20
-1120.612735722451
 10
352.5063041653457
 20
-1124.971470530389
 10
352.9018011270524
 20
-1139.021258938335
 10
350.2780164054861
 20
-1155.551516095661
 10
348.6262653750831
 20
-1171.179847254948
 10
346.9180147787219
 20
-1187.342168214449
 10
345.4669405603346
 20
-1203.062138913644
 10
343.3352877288363
 20
-1216.329890646438
 10
358.2696044026201
 20
-1211.745846593765
 10
374.1542506660101
 20
-1208.112648895021
 10
391.3070365775205
 20
-1205.747935353945
 10
390.987159461715
 20
-1180.074394778766
 10
394.2865274079388
 20
-1155.485370262344
 10
396.9507920014568
 20
-1131.673559287394
 10
400.053617250247
 20
-1127.557359201618
 10
403.2990694521266
 20
-1124.379603126023
 10
407.8855250716397
 20
-1120.738826217211
 10
411.0334810712868
 20
-1118.240442971308
 10
417.7417710001653
 20
-1112.942575134091
 10
423.4058524874645
 20
-1115.095070793275
 10
430.7526908645341
 20
-1117.887665193618
 10
426.8902220612462
 20
-1136.479467489318
 10
425.8749524217431
 20
-1145.077736801404
 10
424.1019340302593
 20
-1160.091462926123
 10
422.1115301136562
 20
-1173.550761967897
 10
420.5839747754964
 20
-1188.463891304447
 10
419.8706677552754
 20
-1195.427807318331
 10
418.3777356267424
 20
-1205.76309377408
 10
421.2893580761013
 20
-1209.980579667123
 10
426.8471583676806
 20
-1218.030389777958
 10
451.3362751150306
 20
-1213.574503277336
 10
460.7956460436553
 20
-1211.391690777881
 10
470.0626083894288
 20
-1209.252975500638
 10
478.0712496092149
 20
-1205.55983314045
 10
485.1342121182998
 20
-1201.86737979936
 10
485.8220254319299
 20
-1193.619821207672
 10
487.137190633424
 20
-1185.998580975202
 10
487.956089830268
 20
-1177.881936011953
 10
484.0624429128386
 20
-1178.546839440606
 10
476.7059582684103
 20
-1185.740198813808
 10
469.9664902253903
 20
-1182.467358102821
 10
465.9750025961799
 20
-1180.529147382819
 10
467.1842311115026
 20
-1168.968095953418
 10
467.8501680688014
 20
-1162.361780850903
 10
469.4958901821052
 20
-1146.035473346304
 10
470.8863307199521
 20
-1134.818931465427
 10
472.7883679373585
 20
-1119.680492884142
 10
473.6968396168189
 20
-1112.453371575185
 10
475.3665051437452
 20
-1104.925837939914
 10
475.2574678716371
 20
-1098.163804521466
 10
475.0726384988534
 20
-1086.67854519274
 10
469.0225340624319
 20
-1079.661574708383
 10
459.3845349328969
 20
-1078.763782824927
 10
431.8187756624446
 20
-1076.195119631125
 10
414.5476507210159
 20
-1095.520038246085
 10
399.0671141580457
 20
-1103.807559945402
 10
400.3130329402863
 20
-1089.172794324061
 10
394.8375704308045
 20
-1080.064650880157
 10
383.8995645199105
 20
-1078.763782824927
 10
358.4509886799185
 20
-1075.736921931587
 10
337.9984903126358
 20
-1094.494088810578
 10
324.6403048233538
 20
-1103.807559945402
 10
324.6976656631832
 20
-1096.026467282417
 10
327.855267930189
 20
-1085.858612467251
 10
323.229538222144
 20
-1081.232538249657
 97
        0
 92
        1
 93
        1
 72
     4
 94
        3
 73
     0
 74
     1
 95
       47
 96
       43
 40
0.0
 40
0.0
 40
0.0
 40
0.0
 40
1.0
 40
1.0
 40
1.0
 40
2.0
 40
2.0
 40
2.0
 40
3.0
 40
3.0
 40
3.0
 40
4.0
 40
4.0
 40
4.0
 40
5.0
 40
5.0
 40
5.0
 40
6.0
 40
6.0
 40
6.0
 40
7.0
 40
7.0
 40
7.0
 40
8.0
 40
8.0
 40
8.0
 40
9.0
 40
9.0
 40
9.0
 40
10.0
 40
10.0
 40
10.0
 40
11.0
 40
11.0
 40
11.0
 40
12.0
 40
12.0
 40
12.0
 40
13.0
 40
13.0
 40
13.0
 40
14.0
 40
14.0
 40
14.0
 40
14.0
 10
1071.730275882241
 20
-1182.114580325131
 10
1066.583303227278
 20
-1179.974487009694
 10
1068.95800754526
 20
-1165.064113749533
 10
1069.613953725652
 20
-1157.775669740938
 10
1071.351315378864
 20
-1138.467287584307
 10
1072.493020022675
 20
-1124.255579688554
 10
1074.552153594209
 20
-1105.57144883385
 10
1075.322476944711
 20
-1098.581350094278
 10
1078.325566679203
 20
-1085.0062958442
 10
1074.19937581652
 20
-1080.879760471968
 10
1071.933192006322
 20
-1078.61357666177
 10
1068.902196998399
 20
-1078.323499621912
 10
1062.911864968647
 20
-1078.763782824927
 10
1041.748987912306
 20
-1080.319587946066
 10
1024.144894492228
 20
-1088.19438720625
 10
1007.179866284663
 20
-1094.989493541357
 10
1006.356488463689
 20
-1102.631404346738
 10
1005.560671406596
 20
-1110.301564935098
 10
1005.063544128074
 20
-1118.270070792481
 10
1008.666080477
 20
-1118.042694490455
 10
1018.937288156724
 20
-1111.672712938228
 10
1024.816688111851
 20
-1115.447848570964
 10
1028.701033271471
 20
-1117.942097702285
 10
1026.534068211248
 20
-1129.951011544769
 10
1025.87502144492
 20
-1136.964536933641
 10
1024.29613418403
 20
-1153.766267615204
 10
1022.74067357244
 20
-1167.277932108354
 10
1020.936821576363
 20
-1183.525691435889
 10
1020.171321359541
 20
-1190.418638482777
 10
1017.911338721217
 20
-1201.145976804748
 10
1020.231266020984
 20
-1207.158357445606
 10
1024.78430421429
 20
-1218.959187520781
 10
1051.168912497624
 20
-1213.478040603749
 10
1062.559087190958
 20
-1210.686135222502
 10
1071.741644697343
 20
-1208.43510983244
 10
1080.716118436418
 20
-1205.820282359135
 10
1087.250431043292
 20
-1201.162513263077
 10
1088.092756889435
 20
-1193.53851695422
 10
1088.090000813047
 20
-1185.070472251475
 10
1089.014319931739
 20
-1177.529158234264
 10
1084.839897732262
 20
-1178.426261098623
 10
1077.589694283554
 20
-1184.5509518523
 10
1071.730275882241
 20
-1182.114580325131
 97
        0
 92
        1
 93
        1
 72
     4
 94
        3
 73
     0
 74
     1
 95
       80
 96
       76
 40
0.0
 40
0.0
 40
0.0
 40
0.0
 40
1.0
 40
1.0
 40
1.0
 40
2.0
 40
2.0
 40
2.0
 40
3.0
 40
3.0
 40
3.0
 40
4.0
 40
4.0
 40
4.0
 40
5.0
 40
5.0
 40
5.0
 40
6.0
 40
6.0
 40
6.0
 40
7.0
 40
7.0
 40
7.0
 40
8.0
 40
8.0
 40
8.0
 40
9.0
 40
9.0
 40
9.0
 40
10.0
 40
10.0
 40
10.0
 40
11.0
 40
11.0
 40
11.0
 40
12.0
 40
12.0
 40
12.0
 40
13.0
 40
13.0
 40
13.0
 40
14.0
 40
14.0
 40
14.0
 40
15.0
 40
15.0
 40
15.0
 40
16.0
 40
16.0
 40
16.0
 40
17.0
 40
17.0
 40
17.0
 40
18.0
 40
18.0
 40
18.0
 40
19.0
 40
19.0
 40
19.0
 40
20.0
 40
20.0
 40
20.0
 40
21.0
 40
21.0
 40
21.0
 40
22.0
 40
22.0
 40
22.0
 40
23.0
 40
23.0
 40
23.0
 40
24.0
 40
24.0
 40
24.0
 40
25.0
 40
25.0
 40
25.0
 40
25.0
 10
1180.019617760551
 20
-1080.526982694278
 10
1176.821880131142
 20
-1078.320054526427
 10
1172.36117049684
 20
-1078.441321887508
 10
1167.32099580192
 20
-1078.763782824927
 10
1147.727015229561
 20
-1080.017797581558
 10
1127.945965972354
 20
-1088.81105929811
 10
1114.410874829904
 20
-1094.989493541357
 10
1113.692916930778
 20
-1102.854646534182
 10
1112.866094014318
 20
-1110.610934509674
 10
1111.941774895626
 20
-1118.270070792481
 10
1117.543500154642
 20
-1117.725745705812
 10
1124.560470638999
 20
-1112.088191453749
 10
1131.342141101713
 20
-1115.095070793275
 10
1136.49772649539
 20
-1117.381236157287
 10
1134.287353232053
 20
-1131.908514799488
 10
1133.811241035992
 20
-1139.433981377468
 10
1132.129689929641
 20
-1166.028740485403
 10
1128.227430273499
 20
-1193.949172336061
 10
1124.640396854257
 20
-1215.977112868749
 10
1140.799272718273
 20
-1211.912589215251
 10
1157.181735279281
 20
-1208.071307749198
 10
1175.081073382445
 20
-1205.747935353945
 10
1174.960150530913
 20
-1186.866056018388
 10
1176.836694041728
 20
-1167.816745042247
 10
1178.255728872103
 20
-1150.015936669961
 10
1178.715304609835
 20
-1144.250913884944
 10
1178.456233429344
 20
-1136.741294746197
 10
1180.019617760551
 20
-1132.026337065084
 10
1181.384909101355
 20
-1127.908758941113
 10
1188.233758926032
 20
-1123.269593360676
 10
1192.012339654254
 20
-1120.738826217211
 10
1196.274956298153
 20
-1117.884220098133
 10
1203.577180688689
 20
-1113.296730949975
 10
1209.296383703752
 20
-1115.095070793275
 10
1217.372032030727
 20
-1117.634795185001
 10
1212.740445660356
 20
-1137.647354858817
 10
1211.765483638031
 20
-1146.136070134473
 10
1209.981613195768
 20
-1161.667249601076
 10
1208.768595075412
 20
-1173.785028460894
 10
1207.180061547163
 20
-1188.816669082136
 10
1205.766883379114
 20
-1202.189840736779
 10
1204.786409204012
 20
-1212.836563824395
 10
1217.056461284278
 20
-1214.213223980301
 10
1227.509914515171
 20
-1215.386623502577
 10
1237.93649600128
 20
-1212.76766191469
 10
1247.038782782858
 20
-1210.686135222502
 10
1256.437347776169
 20
-1208.536395639706
 10
1265.672959753026
 20
-1206.259187523956
 10
1271.730126635193
 20
-1201.515291040767
 10
1273.085082689541
 20
-1194.051147162425
 10
1273.801662550473
 20
-1185.949660619311
 10
1274.90478212485
 20
-1178.234713789643
 10
1270.039962790129
 20
-1179.116658233867
 10
1263.741639223995
 20
-1186.264542346663
 10
1257.268304807211
 20
-1183.1729136582
 10
1253.012233844733
 20
-1181.140307321903
 10
1254.544956826121
 20
-1167.99589000748
 10
1255.151638141073
 20
-1162.361780850903
 10
1256.958590723087
 20
-1145.586921914124
 10
1258.75865311413
 20
-1134.828577732786
 10
1260.79539356501
 20
-1118.622848570171
 10
1261.747962466681
 20
-1111.042949483524
 10
1263.504272145062
 20
-1102.785744624477
 10
1262.912060231147
 20
-1096.047826874425
 10
1262.046307735704
 20
-1086.203811034873
 10
1256.144514659922
 20
-1079.660196670189
 10
1247.391560560548
 20
-1078.763782824927
 10
1233.730723432887
 20
-1077.363696019722
 10
1220.007185567394
 20
-1082.131708171307
 10
1209.649161481442
 20
-1086.876293673593
 10
1198.671020208145
 20
-1091.905444062961
 10
1189.730652914373
 20
-1099.355807559363
 10
1182.13593991714
 20
-1104.865893278471
 10
1182.838739396131
 20
-1096.69619384475
 10
1185.984800593261
 20
-1084.645938856443
 10
1180.019617760551
 20
-1080.526982694278
 97
        0
 92
        1
 93
        1
 72
     4
 94
        3
 73
     0
 74
     1
 95
       23
 96
       19
 40
0.0
 40
0.0
 40
0.0
 40
0.0
 40
1.0
 40
1.0
 40
1.0
 40
2.0
 40
2.0
 40
2.0
 40
3.0
 40
3.0
 40
3.0
 40
4.0
 40
4.0
 40
4.0
 40
5.0
 40
5.0
 40
5.0
 40
6.0
 40
6.0
 40
6.0
 40
6.0
 10
1427.285834061581
 20
-1108.745759813959
 10
1425.696267004687
 20
-1086.904543456573
 10
1408.192081353681
 20
-1079.402503527893
 10
1384.60489060437
 20
-1078.763782824927
 10
1383.251312588215
 20
-1087.168437770743
 10
1382.968125739327
 20
-1096.644517412471
 10
1381.783012892402
 20
-1105.218671056161
 10
1388.387260937626
 20
-1105.887019580299
 10
1389.371180208213
 20
-1114.972425394
 10
1388.837879427096
 20
-1121.091603994901
 10
1387.710988693871
 20
-1134.02173637014
 10
1377.795659377773
 20
-1142.258270656276
 10
1363.793757797072
 20
-1141.902736802198
 10
1363.596698335316
 20
-1149.147083588581
 10
1362.786756386734
 20
-1155.906360930642
 10
1363.440980019383
 20
-1163.066647387185
 10
1399.722314103195
 20
-1163.062513272602
 10
1429.950615419422
 20
-1145.362990707583
 10
1427.285834061581
 20
-1108.745759813959
 97
        0
 92
        1
 93
        1
 72
     4
 94
        3
 73
     0
 74
     1
 95
       62
 96
       58
 40
0.0
 40
0.0
 40
0.0
 40
0.0
 40
1.0
 40
1.0
 40
1.0
 40
2.0
 40
2.0
 40
2.0
 40
3.0
 40
3.0
 40
3.0
 40
4.0
 40
4.0
 40
4.0
 40
5.0
 40
5.0
 40
5.0
 40
6.0
 40
6.0
 40
6.0
 40
7.0
 40
7.0
 40
7.0
 40
8.0
 40
8.0
 40
8.0
 40
9.0
 40
9.0
 40
9.0
 40
10.0
 40
10.0
 40
10.0
 40
11.0
 40
11.0
 40
11.0
 40
12.0
 40
12.0
 40
12.0
 40
13.0
 40
13.0
 40
13.0
 40
14.0
 40
14.0
 40
14.0
 40
15.0
 40
15.0
 40
15.0
 40
16.0
 40
16.0
 40
16.0
 40
17.0
 40
17.0
 40
17.0
 40
18.0
 40
18.0
 40
18.0
 40
19.0
 40
19.0
 40
19.0
 40
19.0
 10
1518.996687445772
 20
-1084.407538248863
 10
1516.783213596499
 20
-1079.554087729244
 10
1510.576874079821
 20
-1078.309030220874
 10
1503.476187775173
 20
-1078.763782824927
 10
1484.822373760739
 20
-1079.957852920115
 10
1464.458414347427
 20
-1088.766962075899
 10
1452.682733469295
 20
-1094.989493541357
 10
1452.250029476347
 20
-1102.67067843527
 10
1450.76381528401
 20
-1111.176619188352
 10
1450.918844580847
 20
-1118.270070792481
 10
1455.806746055319
 20
-1116.073477911086
 10
1462.556032620472
 20
-1113.956122225851
 10
1469.613999741103
 20
-1115.095070793275
 10
1472.2656897361
 20
-1116.780411504659
 10
1473.025333290598
 20
-1119.652243101163
 10
1473.141088498902
 20
-1123.208270661038
 10
1473.638560286972
 20
-1138.487958157218
 10
1470.983769706039
 20
-1154.835625253826
 10
1469.261221963414
 20
-1170.474291699569
 10
1467.510079928261
 20
-1186.369273249415
 10
1465.901564846198
 20
-1201.931458575385
 10
1463.264688761788
 20
-1215.977112868749
 10
1478.881651105974
 20
-1211.723797982659
 10
1494.84897966101
 20
-1207.819815778774
 10
1512.647376466456
 20
-1205.747935353945
 10
1511.573540203704
 20
-1192.120515652491
 10
1513.66953629693
 20
-1174.791685361684
 10
1514.763698623045
 20
-1161.656225295523
 10
1515.179521648115
 20
-1156.666348994688
 10
1514.950767307894
 20
-1151.262372216525
 10
1516.174809733804
 20
-1147.193714448445
 10
1518.150227485046
 20
-1140.628051472655
 10
1523.435692978516
 20
-1134.891967489714
 10
1527.814753849817
 20
-1131.320781509705
 10
1533.834713700743
 20
-1126.412209462321
 10
1545.401966302018
 20
-1120.582418882181
 10
1554.269986590599
 20
-1123.913826216417
 10
1557.555574154882
 20
-1125.147859419234
 10
1557.56763198908
 20
-1128.340084895866
 10
1562.030064171124
 20
-1128.852026084975
 10
1564.228724109811
 20
-1122.874785418066
 10
1565.452077516623
 20
-1115.4161536925
 10
1566.968264039682
 20
-1106.982559944609
 10
1567.997314061126
 20
-1101.259567324512
 10
1571.911631551467
 20
-1089.354695365682
 10
1569.79014175165
 20
-1083.349204915795
 10
1567.177036826088
 20
-1075.950517851672
 10
1554.513554841406
 20
-1079.724275446215
 10
1548.979008944352
 20
-1082.290871582726
 10
1536.167387853805
 20
-1088.232972275685
 10
1528.643643823568
 20
-1098.061829695103
 10
1522.170998425881
 20
-1109.098537591649
 10
1520.855660969612
 20
-1111.341983771644
 10
1519.966826334418
 20
-1114.849779994725
 10
1517.938354112703
 20
-1115.095070793275
 10
1517.014379503559
 20
-1106.027579476097
 10
1523.09841813051
 20
-1093.401993541754
 10
1518.996687445772
 20
-1084.407538248863
 97
        0
 92
        1
 93
        1
 72
     4
 94
        3
 73
     0
 74
     1
 95
       47
 96
       43
 40
0.0
 40
0.0
 40
0.0
 40
0.0
 40
1.0
 40
1.0
 40
1.0
 40
2.0
 40
2.0
 40
2.0
 40
3.0
 40
3.0
 40
3.0
 40
4.0
 40
4.0
 40
4.0
 40
5.0
 40
5.0
 40
5.0
 40
6.0
 40
6.0
 40
6.0
 40
7.0
 40
7.0
 40
7.0
 40
8.0
 40
8.0
 40
8.0
 40
9.0
 40
9.0
 40
9.0
 40
10.0
 40
10.0
 40
10.0
 40
11.0
 40
11.0
 40
11.0
 40
12.0
 40
12.0
 40
12.0
 40
13.0
 40
13.0
 40
13.0
 40
14.0
 40
14.0
 40
14.0
 40
14.0
 10
762.030144394996
 20
-1079.469338380306
 10
734.9351574226031
 20
-1081.040990940677
 10
719.6689057988154
 20
-1089.440133733716
 10
707.0035290116172
 20
-1105.92422661154
 10
695.2648829099512
 20
-1121.202536069526
 10
688.7483125448268
 20
-1143.391707070923
 10
690.7778182951876
 20
-1170.827069477259
 10
692.6025131189501
 20
-1195.491886094356
 10
707.1900809321435
 20
-1209.800745682793
 10
729.5785507073623
 20
-1213.507668424922
 10
747.5574705162356
 20
-1216.484919943275
 10
769.1754446861784
 20
-1213.249286263528
 10
783.5468327576724
 20
-1208.216690778675
 10
786.5738659057871
 20
-1207.156979407412
 10
795.2205388094415
 20
-1204.719918861146
 10
796.9508380169082
 20
-1201.162513263077
 10
798.6468585242967
 20
-1197.67469859381
 10
797.8796357597315
 20
-1191.763603760219
 10
798.361604618118
 20
-1187.405557971378
 10
798.8861204057473
 20
-1182.66372854548
 10
799.6497258200529
 20
-1178.362871341694
 10
800.1253212517917
 20
-1174.002069476465
 10
789.4086627258249
 20
-1180.950827070214
 10
775.7659123494614
 20
-1189.431963135802
 10
759.5610444607174
 20
-1187.758335749067
 10
746.7253077017735
 20
-1186.432663006343
 10
739.6861163515368
 20
-1175.429028026455
 10
738.7497393986459
 20
-1162.361780850903
 10
737.1174531577345
 20
-1139.58074244514
 10
742.3529647666687
 20
-1112.804771314681
 10
756.7391667487493
 20
-1105.57144883385
 10
771.9480575327075
 20
-1097.924025875693
 10
782.1148788192282
 20
-1110.752183424569
 10
780.7249550457042
 20
-1126.735359418837
 10
787.7348630843163
 20
-1125.750062110056
 10
795.8844087094491
 20
-1125.904402387795
 10
803.2999767414493
 20
-1125.324248308079
 10
804.519712798002
 20
-1110.670879171117
 10
806.448966269742
 20
-1096.727888723214
 10
809.2963376883009
 20
-1083.701982693484
 10
795.3468015589758
 20
-1079.443155654619
 10
778.960204883385
 20
-1078.486797147913
 10
762.030144394996
 20
-1079.469338380306
 97
        0
 92
        1
 93
        1
 72
     4
 94
        3
 73
     0
 74
     1
 95
       29
 96
       25
 40
0.0
 40
0.0
 40
0.0
 40
0.0
 40
1.0
 40
1.0
 40
1.0
 40
2.0
 40
2.0
 40
2.0
 40
3.0
 40
3.0
 40
3.0
 40
4.0
 40
4.0
 40
4.0
 40
5.0
 40
5.0
 40
5.0
 40
6.0
 40
6.0
 40
6.0
 40
7.0
 40
7.0
 40
7.0
 40
8.0
 40
8.0
 40
8.0
 40
8.0
 10
1310.530859047367
 20
-1127.440914974216
 10
1301.256662001075
 20
-1155.867775861207
 10
1301.312472547936
 20
-1195.401624592643
 10
1326.051358717966
 20
-1208.216690778675
 10
1350.958710057226
 20
-1221.119262390033
 10
1395.430069638122
 20
-1213.739867860628
 10
1415.29276765833
 20
-1202.572935354739
 10
1415.96525029705
 20
-1193.251885009847
 10
1416.736607176198
 20
-1184.028675376736
 10
1417.409089814919
 20
-1174.706936012747
 10
1406.892246827096
 20
-1181.833460533535
 10
1379.846180210594
 20
-1194.649215738664
 10
1363.088202241693
 20
-1185.99444686062
 10
1350.041281129504
 20
-1179.256529110568
 10
1350.521182930599
 20
-1158.68379691085
 10
1352.859024726889
 20
-1140.139536932847
 10
1354.893009101381
 20
-1124.004087718131
 10
1359.79813605328
 20
-1109.994951436911
 10
1370.495846554077
 20
-1105.218671056161
 10
1370.958867387295
 20
-1096.946996796076
 10
1373.206792191421
 20
-1086.43325439419
 10
1372.612168710667
 20
-1079.469338380306
 10
1339.135142351848
 20
-1081.537084690553
 10
1319.135329531327
 20
-1101.067330996435
 10
1310.530859047367
 20
-1127.440914974216
 97
        0
 92
        1
 93
        1
 72
     4
 94
        3
 73
     0
 74
     1
 95
       32
 96
       28
 40
0.0
 40
0.0
 40
0.0
 40
0.0
 40
1.0
 40
1.0
 40
1.0
 40
2.0
 40
2.0
 40
2.0
 40
3.0
 40
3.0
 40
3.0
 40
4.0
 40
4.0
 40
4.0
 40
5.0
 40
5.0
 40
5.0
 40
6.0
 40
6.0
 40
6.0
 40
7.0
 40
7.0
 40
7.0
 40
8.0
 40
8.0
 40
8.0
 40
9.0
 40
9.0
 40
9.0
 40
9.0
 10
588.4850096185038
 20
-1130.968003732015
 10
553.9534395316506
 20
-1137.019658461405
 10
515.335297180194
 20
-1144.809708372652
 10
518.6439668842279
 20
-1187.758335749067
 10
519.6726723961235
 20
-1201.112214868993
 10
528.1780963848826
 20
-1213.336102669756
 10
544.3934718148565
 20
-1214.566001757991
 10
562.5020994687495
 20
-1215.939216818411
 10
572.5350787956684
 20
-1208.275257401924
 10
583.8995875276362
 20
-1201.515291040767
 10
584.1867362363319
 20
-1194.512100938351
 10
584.9003877661013
 20
-1187.936102676106
 10
585.3105263836203
 20
-1181.056246992062
 10
581.4411673893619
 20
-1181.973331410236
 10
577.352872577016
 20
-1186.274188614022
 10
570.8485323008642
 20
-1184.936802546648
 10
561.8299613395773
 20
-1183.081274118292
 10
562.1269285704058
 20
-1166.187214877724
 10
567.6738768112066
 20
-1159.539558629386
 10
572.5655678907128
 20
-1153.677384151685
 10
580.9016654363718
 20
-1153.364569481624
 10
587.7794540631246
 20
-1151.779825558409
 10
587.9434406082225
 20
-1145.112876775354
 10
590.218237157133
 20
-1136.830867228813
 10
588.8377873961933
 20
-1130.968003732015
 10
588.7203096401463
 20
-1130.968003732015
 10
588.6028318840994
 20
-1130.968003732015
 10
588.4850096185038
 20
-1130.968003732015
 97
        0
 92
        1
 93
        1
 72
     4
 94
        3
 73
     0
 74
     1
 95
       32
 96
       28
 40
0.0
 40
0.0
 40
0.0
 40
0.0
 40
1.0
 40
1.0
 40
1.0
 40
2.0
 40
2.0
 40
2.0
 40
3.0
 40
3.0
 40
3.0
 40
4.0
 40
4.0
 40
4.0
 40
5.0
 40
5.0
 40
5.0
 40
6.0
 40
6.0
 40
6.0
 40
7.0
 40
7.0
 40
7.0
 40
8.0
 40
8.0
 40
8.0
 40
9.0
 40
9.0
 40
9.0
 40
9.0
 10
1563.441175281883
 20
-1414.566197020491
 10
1562.43520740019
 20
-1423.319495629413
 10
1561.539138064476
 20
-1432.182348274767
 10
1560.971730838056
 20
-1441.373863029414
 10
1564.707592382261
 20
-1439.662339592341
 10
1567.984222698282
 20
-1438.253295538874
 10
1572.964797241307
 20
-1436.788440938546
 10
1576.387155096355
 20
-1435.781784037756
 10
1583.455112993893
 20
-1433.078073100932
 10
1587.074185801148
 20
-1434.671774272409
 10
1592.491253942155
 20
-1437.057847405493
 10
1590.000794415868
 20
-1453.586726524624
 10
1589.543285735427
 20
-1461.479440281332
 10
1587.86793580095
 20
-1490.380346307092
 10
1584.006672781082
 20
-1520.137014051389
 10
1579.314108220623
 20
-1543.313549418859
 10
1597.90177640174
 20
-1541.442862570369
 10
1617.206024443789
 20
-1540.28875558281
 10
1637.515206838885
 20
-1540.13923843875
 10
1636.676326088227
 20
-1490.239786411294
 10
1642.511973330691
 20
-1440.985256258677
 10
1649.155150954899
 20
-1396.223819637923
 10
1647.665147157528
 20
-1395.127590254517
 10
1646.473144119632
 20
-1393.733015602088
 10
1644.569728864031
 20
-1393.049508657814
 10
1619.237252741892
 20
-1401.932342856982
 10
1592.579448386577
 20
-1409.488815294329
 10
1563.441175281883
 20
-1414.566197020491
 97
        0
 92
        1
 93
        1
 72
     4
 94
        3
 73
     0
 74
     1
 95
       32
 96
       28
 40
0.0
 40
0.0
 40
0.0
 40
0.0
 40
1.0
 40
1.0
 40
1.0
 40
2.0
 40
2.0
 40
2.0
 40
3.0
 40
3.0
 40
3.0
 40
4.0
 40
4.0
 40
4.0
 40
5.0
 40
5.0
 40
5.0
 40
6.0
 40
6.0
 40
6.0
 40
7.0
 40
7.0
 40
7.0
 40
8.0
 40
8.0
 40
8.0
 40
9.0
 40
9.0
 40
9.0
 40
9.0
 10
1672.435728206023
 20
-1414.566197020491
 10
1671.430104833879
 20
-1423.319495629413
 10
1670.534035498165
 20
-1432.182348274767
 10
1669.966628271745
 20
-1441.373863029414
 10
1673.70248981595
 20
-1439.662339592341
 10
1676.978775622422
 20
-1438.253295538874
 10
1681.959350165448
 20
-1436.788440938546
 10
1685.381708020495
 20
-1435.781784037756
 10
1692.449665918034
 20
-1433.078073100932
 10
1696.068738725289
 20
-1434.671774272409
 10
1701.485806866295
 20
-1437.057847405493
 10
1698.995691849557
 20
-1453.586726524624
 10
1698.537838659567
 20
-1461.479440281332
 10
1696.862144215542
 20
-1490.380346307092
 10
1693.00157021477
 20
-1520.137014051389
 10
1688.308661144763
 20
-1543.313549418859
 10
1706.89632932588
 20
-1541.442862570369
 10
1726.200577367929
 20
-1540.28875558281
 10
1746.509759763025
 20
-1540.13923843875
 10
1745.670879012367
 20
-1490.239786411294
 10
1751.506526254832
 20
-1440.985256258677
 10
1758.150048388587
 20
-1396.223819637923
 10
1756.659700081668
 20
-1395.127590254517
 10
1755.467697043772
 20
-1393.733015602088
 10
1753.564281788171
 20
-1393.049508657814
 10
1728.232150175581
 20
-1401.932342856982
 10
1701.574001310718
 20
-1409.488815294329
 10
1672.435728206023
 20
-1414.566197020491
 97
        0
 92
        1
 93
        1
 72
     4
 94
        3
 73
     0
 74
     1
 95
       50
 96
       46
 40
0.0
 40
0.0
 40
0.0
 40
0.0
 40
1.0
 40
1.0
 40
1.0
 40
2.0
 40
2.0
 40
2.0
 40
3.0
 40
3.0
 40
3.0
 40
4.0
 40
4.0
 40
4.0
 40
5.0
 40
5.0
 40
5.0
 40
6.0
 40
6.0
 40
6.0
 40
7.0
 40
7.0
 40
7.0
 40
8.0
 40
8.0
 40
8.0
 40
9.0
 40
9.0
 40
9.0
 40
10.0
 40
10.0
 40
10.0
 40
11.0
 40
11.0
 40
11.0
 40
12.0
 40
12.0
 40
12.0
 40
13.0
 40
13.0
 40
13.0
 40
14.0
 40
14.0
 40
14.0
 40
15.0
 40
15.0
 40
15.0
 40
15.0
 10
664.322930063954
 20
-1478.76348433083
 10
674.4809663569874
 20
-1465.543274915732
 10
684.1923460203582
 20
-1449.999004086285
 10
682.6649629369726
 20
-1429.028018848472
 10
679.39918467173
 20
-1384.187345031557
 10
605.2958698031032
 20
-1393.092227841831
 10
569.7901989677955
 20
-1403.278686172618
 10
568.701204284908
 20
-1418.297924450113
 10
566.6370753249206
 20
-1432.341511686185
 10
564.8519990992385
 20
-1446.66484067566
 10
572.3769489128954
 20
-1446.66484067566
 10
579.9018987265523
 20
-1446.66484067566
 10
587.4270207949836
 20
-1446.66484067566
 10
588.3615029453575
 20
-1431.465079394738
 10
597.2107474635445
 20
-1419.199161429054
 10
613.5291312485275
 20
-1419.857174666737
 10
625.6010903383914
 20
-1420.344311168351
 10
630.159640684474
 20
-1429.841061382991
 10
628.6968531414369
 20
-1442.432196362482
 10
626.3684853577308
 20
-1462.471627781083
 10
610.4013290574692
 20
-1478.010386457755
 10
599.0671371657714
 20
-1489.345439623324
 10
585.2259492894574
 20
-1503.187833283057
 10
569.4870305650935
 20
-1512.52266400989
 10
554.9754271073499
 20
-1521.796861056183
 10
556.1421086934298
 20
-1528.272951549355
 10
557.8258991118456
 20
-1534.231588700644
 10
558.8554658976126
 20
-1540.844793994129
 10
586.0383028048793
 20
-1539.143605843513
 10
620.5733179872178
 20
-1540.139927457847
 10
650.5663192818029
 20
-1540.13923843875
 10
658.1954832338887
 20
-1540.13923843875
 10
676.3931666060754
 20
-1541.959626893156
 10
680.5486407803837
 20
-1538.728127327992
 10
683.607541061737
 20
-1536.349633404975
 10
685.0346718665018
 20
-1527.314525985359
 10
686.19239620432
 20
-1523.207972166941
 10
687.9457775515378
 20
-1516.988196777871
 10
689.2295923841162
 20
-1512.069978463128
 10
690.7778182951876
 20
-1506.629483672822
 10
674.0072657277656
 20
-1512.081002768681
 10
654.2170869675222
 20
-1514.513240181268
 10
631.518730853405
 20
-1514.037127985206
 10
642.3160046137266
 20
-1503.949888404395
 10
653.92563188947
 20
-1492.295130377794
 10
664.322930063954
 20
-1478.76348433083
 97
        0
 92
        1
 93
        1
 72
     4
 94
        3
 73
     0
 74
     1
 95
       50
 96
       46
 40
0.0
 40
0.0
 40
0.0
 40
0.0
 40
1.0
 40
1.0
 40
1.0
 40
2.0
 40
2.0
 40
2.0
 40
3.0
 40
3.0
 40
3.0
 40
4.0
 40
4.0
 40
4.0
 40
5.0
 40
5.0
 40
5.0
 40
6.0
 40
6.0
 40
6.0
 40
7.0
 40
7.0
 40
7.0
 40
8.0
 40
8.0
 40
8.0
 40
9.0
 40
9.0
 40
9.0
 40
10.0
 40
10.0
 40
10.0
 40
11.0
 40
11.0
 40
11.0
 40
12.0
 40
12.0
 40
12.0
 40
13.0
 40
13.0
 40
13.0
 40
14.0
 40
14.0
 40
14.0
 40
15.0
 40
15.0
 40
15.0
 40
15.0
 10
873.493969508189
 20
-1478.76348433083
 10
883.6525225655453
 20
-1465.543274915732
 10
893.3628687002704
 20
-1449.999004086285
 10
891.8360023812077
 20
-1429.028018848472
 10
888.571429899385
 20
-1384.187345031557
 10
814.4660479734669
 20
-1393.092227841831
 10
778.9612384120305
 20
-1403.278686172618
 10
777.8722437291431
 20
-1418.297924450113
 10
775.8081147691556
 20
-1432.341511686185
 10
774.0230385434735
 20
-1446.66484067566
 10
781.5479883571304
 20
-1446.66484067566
 10
789.0729381707873
 20
-1446.66484067566
 10
796.5980602392186
 20
-1446.66484067566
 10
797.5325423895925
 20
-1431.465079394738
 10
806.3817869077795
 20
-1419.199161429054
 10
822.7005152023111
 20
-1419.857174666737
 10
834.771785273078
 20
-1420.343622149255
 10
839.3311968930318
 20
-1429.841061382991
 10
837.8678925856719
 20
-1442.432196362482
 10
835.5388357828688
 20
-1462.471627781083
 10
819.5730575208012
 20
-1478.010386457755
 10
808.2381766100065
 20
-1489.345439623324
 10
794.3983667718866
 20
-1503.185766225766
 10
778.6573809902316
 20
-1512.523353028987
 10
764.1464665515849
 20
-1521.796861056183
 10
765.3131481376648
 20
-1528.272951549355
 10
766.9969385560806
 20
-1534.231588700644
 10
768.0265053418476
 20
-1540.844793994129
 10
795.2095145038886
 20
-1539.143605843513
 10
829.7443574314528
 20
-1540.139927457847
 10
859.7373587260379
 20
-1540.13923843875
 10
867.3665226781237
 20
-1540.13923843875
 10
885.564550559859
 20
-1541.959626893156
 10
889.7196802246187
 20
-1538.728127327992
 10
892.7785805059721
 20
-1536.348944385878
 10
894.2055390559625
 20
-1527.314525985359
 10
895.363435648555
 20
-1523.207972166941
 10
897.1169892505471
 20
-1516.988196777871
 10
898.4006318283513
 20
-1512.069978463128
 10
899.9492022489711
 20
-1506.629483672822
 10
883.1784774267749
 20
-1512.081002768681
 10
863.3881264117572
 20
-1514.513240181268
 10
840.68977029764
 20
-1514.037127985206
 10
851.4870440579616
 20
-1503.949888404395
 10
863.0963268241566
 20
-1492.295130377794
 10
873.493969508189
 20
-1478.76348433083
 97
        0
 92
        1
 93
        1
 72
     4
 94
        3
 73
     0
 74
     1
 95
       50
 96
       46
 40
0.0
 40
0.0
 40
0.0
 40
0.0
 40
1.0
 40
1.0
 40
1.0
 40
2.0
 40
2.0
 40
2.0
 40
3.0
 40
3.0
 40
3.0
 40
4.0
 40
4.0
 40
4.0
 40
5.0
 40
5.0
 40
5.0
 40
6.0
 40
6.0
 40
6.0
 40
7.0
 40
7.0
 40
7.0
 40
8.0
 40
8.0
 40
8.0
 40
9.0
 40
9.0
 40
9.0
 40
10.0
 40
10.0
 40
10.0
 40
11.0
 40
11.0
 40
11.0
 40
12.0
 40
12.0
 40
12.0
 40
13.0
 40
13.0
 40
13.0
 40
14.0
 40
14.0
 40
14.0
 40
15.0
 40
15.0
 40
15.0
 40
15.0
 10
1019.878488243294
 20
-1478.76348433083
 10
1030.036696791102
 20
-1465.542585896635
 10
1039.747387435376
 20
-1449.999004086285
 10
1038.220521116313
 20
-1429.028018848472
 10
1034.955604124942
 20
-1384.187345031557
 10
960.8516002372177
 20
-1393.092227841831
 10
925.3457571471358
 20
-1403.278686172618
 10
924.2567624642484
 20
-1418.297924450113
 10
922.1924612494867
 20
-1432.341511686185
 10
920.4075572785787
 20
-1446.66484067566
 10
927.9323348374614
 20
-1446.66484067566
 10
935.4574569058926
 20
-1446.66484067566
 10
942.9825789743238
 20
-1446.66484067566
 10
943.9168888699236
 20
-1431.465079394738
 10
952.7663056428848
 20
-1419.199161429054
 10
969.0846894278677
 20
-1419.857174666737
 10
981.1569930272802
 20
-1420.344311168351
 10
985.7148543542658
 20
-1429.841061382991
 10
984.2520668112287
 20
-1442.432196362482
 10
981.9245603013939
 20
-1462.470938761986
 10
965.9572317463579
 20
-1478.011075476851
 10
954.622867599886
 20
-1489.345439623324
 10
940.7811629592492
 20
-1503.18714426396
 10
925.0425887444338
 20
-1512.52266400989
 10
910.5311575414645
 20
-1521.796861056183
 10
911.69766687277
 20
-1528.272951549355
 10
913.3816295459602
 20
-1534.231588700644
 10
914.4110240769528
 20
-1540.844793994129
 10
941.5938609842196
 20
-1539.143605843513
 10
976.1288761665581
 20
-1540.139927457847
 10
1006.121877461143
 20
-1540.13923843875
 10
1013.751041413229
 20
-1540.13923843875
 10
1031.948724785416
 20
-1541.959626893156
 10
1036.104198959724
 20
-1538.728127327992
 10
1039.163099241077
 20
-1536.349633404975
 10
1040.590402300616
 20
-1527.314525985359
 10
1041.74795438366
 20
-1523.207972166941
 10
1043.501163476104
 20
-1516.988196777871
 10
1044.785150563456
 20
-1512.069978463128
 10
1046.333376474528
 20
-1506.629483672822
 10
1029.562651652332
 20
-1512.081002768681
 10
1009.772645146862
 20
-1514.513240181268
 10
987.0742890327454
 20
-1514.037127985206
 10
997.8712182835184
 20
-1503.949199385298
 10
1009.48119006881
 20
-1492.295819396891
 10
1019.878488243294
 20
-1478.76348433083
 97
        0
 92
        1
 93
        1
 72
     4
 94
        3
 73
     0
 74
     1
 95
       50
 96
       46
 40
0.0
 40
0.0
 40
0.0
 40
0.0
 40
1.0
 40
1.0
 40
1.0
 40
2.0
 40
2.0
 40
2.0
 40
3.0
 40
3.0
 40
3.0
 40
4.0
 40
4.0
 40
4.0
 40
5.0
 40
5.0
 40
5.0
 40
6.0
 40
6.0
 40
6.0
 40
7.0
 40
7.0
 40
7.0
 40
8.0
 40
8.0
 40
8.0
 40
9.0
 40
9.0
 40
9.0
 40
10.0
 40
10.0
 40
10.0
 40
11.0
 40
11.0
 40
11.0
 40
12.0
 40
12.0
 40
12.0
 40
13.0
 40
13.0
 40
13.0
 40
14.0
 40
14.0
 40
14.0
 40
15.0
 40
15.0
 40
15.0
 40
15.0
 10
1166.2630069784
 20
-1478.76348433083
 10
1176.421560035756
 20
-1465.542585896635
 10
1186.131217151384
 20
-1449.999004086285
 10
1184.605039851418
 20
-1429.028018848472
 10
1181.341500898241
 20
-1384.187345031557
 10
1107.235085443677
 20
-1393.092227841831
 10
1071.730275882241
 20
-1403.278686172618
 10
1070.641281199354
 20
-1418.297924450113
 10
1068.576979984592
 20
-1432.341511686185
 10
1066.792076013684
 20
-1446.66484067566
 10
1074.316853572567
 20
-1446.66484067566
 10
1081.841975640998
 20
-1446.66484067566
 10
1089.367097709429
 20
-1446.66484067566
 10
1090.301407605029
 20
-1431.465079394738
 10
1099.15082437799
 20
-1419.199161429054
 10
1115.469208162973
 20
-1419.857174666737
 10
1127.541167252837
 20
-1420.344311168351
 10
1132.099373089371
 20
-1429.841061382991
 10
1130.636930055882
 20
-1442.432196362482
 10
1128.308734526951
 20
-1462.470938761986
 10
1112.341405971915
 20
-1478.011075476851
 10
1101.007041825443
 20
-1489.345439623324
 10
1087.165681694354
 20
-1503.18714426396
 10
1071.427451989088
 20
-1512.52266400989
 10
1056.915331767021
 20
-1521.796861056183
 10
1058.082185607875
 20
-1528.272951549355
 10
1059.765803771517
 20
-1534.231588700644
 10
1060.795542812058
 20
-1540.844793994129
 10
1087.978379719325
 20
-1539.143605843513
 10
1122.513394901663
 20
-1540.139927457847
 10
1152.506396196248
 20
-1540.13923843875
 10
1160.135560148334
 20
-1540.13923843875
 10
1178.333243520521
 20
-1541.959626893156
 10
1182.488717694829
 20
-1538.728127327992
 10
1185.547617976183
 20
-1536.349633404975
 10
1186.974576526173
 20
-1527.314525985359
 10
1188.132473118766
 20
-1523.207972166941
 10
1189.885682211209
 20
-1516.988196777871
 10
1191.169669298562
 20
-1512.069978463128
 10
1192.717895209633
 20
-1506.629483672822
 10
1175.947170387437
 20
-1512.081002768681
 10
1156.157163881968
 20
-1514.513240181268
 10
1133.458807767851
 20
-1514.037127985206
 10
1144.255737018624
 20
-1503.949888404395
 10
1155.865708803916
 20
-1492.295130377794
 10
1166.2630069784
 20
-1478.76348433083
 97
        0
 92
        1
 93
        1
 72
     4
 94
        3
 73
     0
 74
     1
 95
       50
 96
       46
 40
0.0
 40
0.0
 40
0.0
 40
0.0
 40
1.0
 40
1.0
 40
1.0
 40
2.0
 40
2.0
 40
2.0
 40
3.0
 40
3.0
 40
3.0
 40
4.0
 40
4.0
 40
4.0
 40
5.0
 40
5.0
 40
5.0
 40
6.0
 40
6.0
 40
6.0
 40
7.0
 40
7.0
 40
7.0
 40
8.0
 40
8.0
 40
8.0
 40
9.0
 40
9.0
 40
9.0
 40
10.0
 40
10.0
 40
10.0
 40
11.0
 40
11.0
 40
11.0
 40
12.0
 40
12.0
 40
12.0
 40
13.0
 40
13.0
 40
13.0
 40
14.0
 40
14.0
 40
14.0
 40
15.0
 40
15.0
 40
15.0
 40
15.0
 10
1375.081268644945
 20
-1478.76348433083
 10
1385.239821702301
 20
-1465.541896877538
 10
1394.949478817929
 20
-1449.999693105382
 10
1393.423301517964
 20
-1429.028018848472
 10
1390.160451583884
 20
-1384.187345031557
 10
1316.052313581577
 20
-1393.092227841831
 10
1280.548537548786
 20
-1403.278686172618
 10
1279.459542865899
 20
-1418.297924450113
 10
1277.395241651137
 20
-1432.341511686185
 10
1275.610337680229
 20
-1446.66484067566
 10
1283.135115239112
 20
-1446.66484067566
 10
1290.660237307543
 20
-1446.66484067566
 10
1298.185359375974
 20
-1446.66484067566
 10
1299.119669271574
 20
-1431.465079394738
 10
1307.969086044536
 20
-1419.199161429054
 10
1324.287469829518
 20
-1419.857174666737
 10
1336.359773428931
 20
-1420.344311168351
 10
1340.917634755916
 20
-1429.841061382991
 10
1339.455191722428
 20
-1442.432196362482
 10
1337.127340703045
 20
-1462.470938761986
 10
1321.160012148009
 20
-1478.011075476851
 10
1309.825648001537
 20
-1489.345439623324
 10
1295.983598851351
 20
-1503.18714426396
 10
1280.245713655633
 20
-1512.52266400989
 10
1265.733937943115
 20
-1521.796861056183
 10
1266.900447274421
 20
-1528.272951549355
 10
1268.584409947611
 20
-1534.231588700644
 10
1269.613804478603
 20
-1540.844793994129
 10
1296.79664138587
 20
-1539.143605843513
 10
1331.331656568209
 20
-1540.139927457847
 10
1361.324657862794
 20
-1540.13923843875
 10
1368.95382181488
 20
-1540.13923843875
 10
1387.151849696615
 20
-1541.959626893156
 10
1391.306979361375
 20
-1538.728127327992
 10
1394.365879642728
 20
-1536.348944385878
 10
1395.792838192719
 20
-1527.314525985359
 10
1396.950734785311
 20
-1523.207972166941
 10
1398.704288387303
 20
-1516.988196777871
 10
1399.987930965107
 20
-1512.069978463128
 10
1401.536156876178
 20
-1506.629483672822
 10
1384.765432053982
 20
-1512.081002768681
 10
1364.975425548513
 20
-1514.513240181268
 10
1342.277069434396
 20
-1514.037127985206
 10
1353.073998685169
 20
-1503.949199385298
 10
1364.683970470461
 20
-1492.295819396891
 10
1375.081268644945
 20
-1478.76348433083
 97
        0
 92
        1
 93
        1
 72
     4
 94
        3
 73
     0
 74
     1
 95
       50
 96
       46
 40
0.0
 40
0.0
 40
0.0
 40
0.0
 40
1.0
 40
1.0
 40
1.0
 40
2.0
 40
2.0
 40
2.0
 40
3.0
 40
3.0
 40
3.0
 40
4.0
 40
4.0
 40
4.0
 40
5.0
 40
5.0
 40
5.0
 40
6.0
 40
6.0
 40
6.0
 40
7.0
 40
7.0
 40
7.0
 40
8.0
 40
8.0
 40
8.0
 40
9.0
 40
9.0
 40
9.0
 40
10.0
 40
10.0
 40
10.0
 40
11.0
 40
11.0
 40
11.0
 40
12.0
 40
12.0
 40
12.0
 40
13.0
 40
13.0
 40
13.0
 40
14.0
 40
14.0
 40
14.0
 40
15.0
 40
15.0
 40
15.0
 40
15.0
 10
1521.46578738005
 20
-1478.76348433083
 10
1531.624340437407
 20
-1465.542585896635
 10
1541.333997553035
 20
-1449.999693105382
 10
1539.807820253069
 20
-1429.028018848472
 10
1536.544281299892
 20
-1384.187345031557
 10
1462.437865845328
 20
-1393.092227841831
 10
1426.933056283892
 20
-1403.278686172618
 10
1425.844061601004
 20
-1418.297924450113
 10
1423.779760386243
 20
-1432.341511686185
 10
1421.994856415335
 20
-1446.66484067566
 10
1429.519633974217
 20
-1446.66484067566
 10
1437.044756042648
 20
-1446.66484067566
 10
1444.56987811108
 20
-1446.66484067566
 10
1445.504532516228
 20
-1431.465079394738
 10
1454.353604779641
 20
-1419.199161429054
 10
1470.671988564624
 20
-1419.857174666737
 10
1482.742914125842
 20
-1420.343622149255
 10
1487.303876038764
 20
-1429.841061382991
 10
1485.839710457533
 20
-1442.432196362482
 10
1483.509103361762
 20
-1462.472316800181
 10
1467.545564411759
 20
-1478.009697438657
 10
1456.209822227093
 20
-1489.345439623324
 10
1442.369840134199
 20
-1503.185766225766
 10
1426.629198862093
 20
-1512.524042048084
 10
1412.118112168672
 20
-1521.796861056183
 10
1413.284966009526
 20
-1528.272951549355
 10
1414.968584173168
 20
-1534.231588700644
 10
1415.998323213709
 20
-1540.844793994129
 10
1443.181160120976
 20
-1539.143605843513
 10
1477.716175303314
 20
-1540.139927457847
 10
1507.709176597899
 20
-1540.13923843875
 10
1515.338340549985
 20
-1540.13923843875
 10
1533.536023922172
 20
-1541.959626893156
 10
1537.69149809648
 20
-1538.728127327992
 10
1540.750398377833
 20
-1536.348944385878
 10
1542.177356927824
 20
-1527.314525985359
 10
1543.335253520416
 20
-1523.207972166941
 10
1545.088807122409
 20
-1516.988196777871
 10
1546.372449700212
 20
-1512.069978463128
 10
1547.920675611284
 20
-1506.629483672822
 10
1531.149950789088
 20
-1512.081002768681
 10
1511.359944283618
 20
-1514.513240181268
 10
1488.661588169501
 20
-1514.037127985206
 10
1499.458517420274
 20
-1503.949199385298
 10
1511.068489205566
 20
-1492.295819396891
 10
1521.46578738005
 20
-1478.76348433083
 97
        0
 92
        1
 93
        1
 72
     4
 94
        3
 73
     0
 74
     1
 95
       23
 96
       19
 40
0.0
 40
0.0
 40
0.0
 40
0.0
 40
1.0
 40
1.0
 40
1.0
 40
2.0
 40
2.0
 40
2.0
 40
3.0
 40
3.0
 40
3.0
 40
4.0
 40
4.0
 40
4.0
 40
5.0
 40
5.0
 40
5.0
 40
6.0
 40
6.0
 40
6.0
 40
6.0
 10
244.216962287036
 20
-1465.359995835917
 10
240.0272094126495
 20
-1513.186189400349
 10
257.2082451071389
 20
-1543.310793342471
 10
303.8289997612824
 20
-1542.608682882577
 10
304.241549945641
 20
-1533.967694386473
 10
305.2643987952117
 20
-1525.936487791259
 10
305.592716394956
 20
-1517.211438965315
 10
291.0451116893915
 20
-1513.163451770147
 10
292.9040852132323
 20
-1481.77656484223
 10
294.657983324773
 20
-1464.654440280538
 10
296.530220466232
 20
-1446.376830693093
 10
300.5751070754638
 20
-1425.14677427479
 10
315.1165106091549
 20
-1420.562730222116
 10
316.2416787946375
 20
-1412.516365206767
 10
317.0190645908841
 20
-1404.122734566504
 10
317.5857827982077
 20
-1395.518264082544
 10
271.8113158500159
 20
-1396.707511044052
 10
248.0379176897266
 20
-1421.745086992654
 10
244.216962287036
 20
-1465.359995835917
 97
        0
 92
        1
 93
        1
 72
     4
 94
        3
 73
     0
 74
     1
 95
       32
 96
       28
 40
0.0
 40
0.0
 40
0.0
 40
0.0
 40
1.0
 40
1.0
 40
1.0
 40
2.0
 40
2.0
 40
2.0
 40
3.0
 40
3.0
 40
3.0
 40
4.0
 40
4.0
 40
4.0
 40
5.0
 40
5.0
 40
5.0
 40
6.0
 40
6.0
 40
6.0
 40
7.0
 40
7.0
 40
7.0
 40
8.0
 40
8.0
 40
8.0
 40
9.0
 40
9.0
 40
9.0
 40
9.0
 10
328.5205158683907
 20
-1396.576597415613
 10
327.8659477261933
 20
-1404.740784696558
 10
327.1541909989406
 20
-1412.847094373351
 10
326.4040214570275
 20
-1420.915507999806
 10
339.4170083786875
 20
-1424.818801184594
 10
338.1092501324866
 20
-1448.951695058769
 10
337.3387545272105
 20
-1466.770417927578
 10
336.6251029974409
 20
-1483.275181378313
 10
333.9287990159102
 20
-1498.826342398731
 10
328.873121391306
 20
-1508.04059478358
 10
326.435199571169
 20
-1512.484078940455
 10
322.2769693204725
 20
-1516.880709798731
 10
316.527449465139
 20
-1516.858661187626
 10
316.165886693962
 20
-1525.668459362507
 10
315.0834376924965
 20
-1533.756854542776
 10
314.7639050862396
 20
-1542.608682882577
 10
362.3706460682615
 20
-1542.944924201938
 10
384.8841728095949
 20
-1513.744983888057
 10
388.4851588655524
 20
-1470.298195704474
 10
390.5181097113983
 20
-1445.769804868592
 10
387.8929469516379
 20
-1423.107277747522
 10
373.6703870051067
 20
-1409.980774929623
 10
363.7703883639185
 20
-1400.843692683643
 10
347.1896605577339
 20
-1395.522398197126
 10
328.873121391306
 20
-1395.518264082544
 10
328.4621214999157
 20
-1395.578208743987
 10
328.4901990281205
 20
-1396.076369551155
 10
328.5205158683907
 20
-1396.576597415613
 97
        0
 92
        1
 93
        1
 72
     4
 94
        3
 73
     0
 74
     1
 95
       35
 96
       31
 40
0.0
 40
0.0
 40
0.0
 40
0.0
 40
1.0
 40
1.0
 40
1.0
 40
2.0
 40
2.0
 40
2.0
 40
3.0
 40
3.0
 40
3.0
 40
4.0
 40
4.0
 40
4.0
 40
5.0
 40
5.0
 40
5.0
 40
6.0
 40
6.0
 40
6.0
 40
7.0
 40
7.0
 40
7.0
 40
8.0
 40
8.0
 40
8.0
 40
9.0
 40
9.0
 40
9.0
 40
10.0
 40
10.0
 40
10.0
 40
10.0
 10
423.7584580103799
 20
-1398.69326408175
 10
422.291880862309
 20
-1417.56756420724
 10
419.420221520579
 20
-1435.036954393845
 10
415.645602652165
 20
-1451.603040544217
 10
423.7584580103799
 20
-1451.603040544217
 10
431.8713133685947
 20
-1451.603040544217
 10
439.9841687268095
 20
-1451.603040544217
 10
441.8531330275576
 20
-1430.544549881079
 10
456.2374402071212
 20
-1422.00071307766
 10
481.6067788509525
 20
-1424.442596757605
 10
463.8833128723105
 20
-1465.037534898498
 10
445.9333318655132
 20
-1505.406474775558
 10
425.5221746440535
 20
-1543.313549418859
 10
447.1339476421228
 20
-1540.704234098331
 10
470.2265949345267
 20
-1539.57630983646
 10
493.5998452542042
 20
-1538.728127327992
 10
498.4391708823347
 20
-1515.234643175879
 10
507.4811684929214
 20
-1494.355297477974
 10
516.174694695175
 20
-1474.178062239962
 10
524.9372950619081
 20
-1453.840974571436
 10
533.5844847298852
 20
-1433.982066156261
 10
544.040694037167
 20
-1414.91897479818
 10
541.6292994522663
 20
-1409.217341770091
 10
539.0239459915462
 20
-1403.710012127371
 10
536.9859997572465
 20
-1397.634930748682
 10
501.2319375374524
 20
-1399.843925973824
 10
460.322978943079
 20
-1399.45945331767
 10
424.464013565759
 20
-1397.634930748682
 10
423.9680920706573
 20
-1397.727259307686
 10
424.0617986678561
 20
-1398.408010175572
 10
423.7584580103799
 20
-1398.69326408175
 97
        0
 92
        1
 93
        1
 72
     4
 94
        3
 73
     0
 74
     1
 95
       50
 96
       46
 40
0.0
 40
0.0
 40
0.0
 40
0.0
 40
1.0
 40
1.0
 40
1.0
 40
2.0
 40
2.0
 40
2.0
 40
3.0
 40
3.0
 40
3.0
 40
4.0
 40
4.0
 40
4.0
 40
5.0
 40
5.0
 40
5.0
 40
6.0
 40
6.0
 40
6.0
 40
7.0
 40
7.0
 40
7.0
 40
8.0
 40
8.0
 40
8.0
 40
9.0
 40
9.0
 40
9.0
 40
10.0
 40
10.0
 40
10.0
 40
11.0
 40
11.0
 40
11.0
 40
12.0
 40
12.0
 40
12.0
 40
13.0
 40
13.0
 40
13.0
 40
14.0
 40
14.0
 40
14.0
 40
15.0
 40
15.0
 40
15.0
 40
15.0
 10
612.1183646473177
 20
-1733.437344944245
 10
607.7596298393796
 20
-1729.720775934757
 10
612.2053533083202
 20
-1712.864612744527
 10
613.1765257256121
 20
-1707.335234490701
 10
613.84969738343
 20
-1703.502221253812
 10
614.5306205060896
 20
-1698.677709536268
 10
615.2928478822012
 20
-1693.931056976691
 10
615.9966808898376
 20
-1689.548206500356
 10
617.5536917943963
 20
-1683.907207152808
 10
616.3510089604956
 20
-1680.174790704088
 10
613.1262273315275
 20
-1670.164032243049
 10
586.6410222600238
 20
-1667.948146826937
 10
572.9648544574533
 20
-1669.592835411595
 10
555.1061684810152
 20
-1671.739818918003
 10
538.7426539451754
 20
-1671.013592789712
 10
524.2877223081642
 20
-1675.941457371813
 10
524.002123892437
 20
-1682.00551444495
 10
522.7484536453546
 20
-1687.100810667635
 10
521.465844596196
 20
-1692.167168088243
 10
527.8053370533786
 20
-1691.941858843508
 10
533.3936264400023
 20
-1692.467580414557
 10
539.4550996915251
 20
-1692.519945865933
 10
545.5365544968624
 20
-1684.046389010412
 10
556.1534775085311
 20
-1678.986921780774
 10
571.5539156014692
 20
-1680.174790704088
 10
576.1746499210606
 20
-1680.531013577263
 10
580.7073620510038
 20
-1681.935234497051
 10
582.1360431487368
 20
-1685.112990572645
 10
583.8906302793746
 20
-1689.015594738336
 10
582.0962522958822
 20
-1694.928067610122
 10
581.4304875933577
 20
-1699.574812400627
 10
579.8705483576366
 20
-1710.462003153114
 10
578.2944171731348
 20
-1718.515947378531
 10
576.8448932477158
 20
-1728.851922853377
 10
575.1362981418063
 20
-1741.034469508318
 10
574.8929021457733
 20
-1747.972891815611
 10
586.7214652396044
 20
-1748.957500105295
 10
601.9966741116536
 20
-1750.22942935845
 10
618.5484631157623
 20
-1745.624025713768
 10
630.4603975203363
 20
-1742.25541134829
 10
630.4412772403932
 20
-1738.58845171379
 10
631.751619308208
 20
-1734.379234049912
 10
630.813175298026
 20
-1730.967900500418
 10
626.7176457851609
 20
-1732.209512913302
 10
616.7701048262762
 20
-1737.403338866864
 10
612.1183646473177
 20
-1733.437344944245
 97
        0
 92
        1
 93
        1
 72
     4
 94
        3
 73
     0
 74
     1
 95
       95
 96
       91
 40
0.0
 40
0.0
 40
0.0
 40
0.0
 40
1.0
 40
1.0
 40
1.0
 40
2.0
 40
2.0
 40
2.0
 40
3.0
 40
3.0
 40
3.0
 40
4.0
 40
4.0
 40
4.0
 40
5.0
 40
5.0
 40
5.0
 40
6.0
 40
6.0
 40
6.0
 40
7.0
 40
7.0
 40
7.0
 40
8.0
 40
8.0
 40
8.0
 40
9.0
 40
9.0
 40
9.0
 40
10.0
 40
10.0
 40
10.0
 40
11.0
 40
11.0
 40
11.0
 40
12.0
 40
12.0
 40
12.0
 40
13.0
 40
13.0
 40
13.0
 40
14.0
 40
14.0
 40
14.0
 40
15.0
 40
15.0
 40
15.0
 40
16.0
 40
16.0
 40
16.0
 40
17.0
 40
17.0
 40
17.0
 40
18.0
 40
18.0
 40
18.0
 40
19.0
 40
19.0
 40
19.0
 40
20.0
 40
20.0
 40
20.0
 40
21.0
 40
21.0
 40
21.0
 40
22.0
 40
22.0
 40
22.0
 40
23.0
 40
23.0
 40
23.0
 40
24.0
 40
24.0
 40
24.0
 40
25.0
 40
25.0
 40
25.0
 40
26.0
 40
26.0
 40
26.0
 40
27.0
 40
27.0
 40
27.0
 40
28.0
 40
28.0
 40
28.0
 40
29.0
 40
29.0
 40
29.0
 40
30.0
 40
30.0
 40
30.0
 40
30.0
 10
703.1236624761289
 20
-1672.061590836325
 10
701.3075803910793
 20
-1669.265551340496
 10
694.6414928818953
 20
-1669.277953684243
 10
689.719657216893
 20
-1669.592835411595
 10
676.4419147071916
 20
-1670.44170693916
 10
660.4895723175165
 20
-1675.109122302577
 10
650.9190970594925
 20
-1678.058124037951
 10
650.5590845812839
 20
-1681.346123169073
 10
649.2778535703195
 20
-1685.584279635028
 10
649.8607637264238
 20
-1688.640079330444
 10
654.1772961146675
 20
-1688.210820432982
 10
663.8056489768437
 20
-1683.269864488037
 10
667.850191076527
 20
-1687.228968219686
 10
670.2962088710544
 20
-1689.623309581935
 10
668.8229137867874
 20
-1697.963196732627
 10
668.2029688542167
 20
-1703.101901158426
 10
666.2182493451642
 20
-1719.556366215076
 10
662.6046886906856
 20
-1737.181474717614
 10
659.7373357183122
 20
-1750.015833438364
 10
671.0791068200775
 20
-1747.836466034395
 10
682.6360241348966
 20
-1745.871383569609
 10
695.0108071179139
 20
-1744.724855792118
 10
695.5480697588387
 20
-1727.742602107127
 10
698.4071545020475
 20
-1713.083031798292
 10
700.654390287076
 20
-1697.810923512179
 10
705.1759058566921
 20
-1694.926000552831
 10
709.2662677263293
 20
-1692.251228418083
 10
715.1165566246063
 20
-1689.698412663513
 10
719.2999360723452
 20
-1687.872512056331
 10
728.1047388587724
 20
-1683.82728093755
 10
733.4587617523993
 20
-1686.523412664307
 10
738.8096840600892
 20
-1689.218855371966
 10
735.7323525178898
 20
-1698.204353416595
 10
734.869528353609
 20
-1704.513012269184
 10
732.6886106566716
 20
-1720.460359270406
 10
729.9333955423431
 20
-1736.761862087511
 10
727.4622285507734
 20
-1750.015833438364
 10
738.7643810544582
 20
-1747.796502926766
 10
750.4623750293983
 20
-1745.972669376875
 10
762.7355276956009
 20
-1744.724855792118
 10
761.9486678867698
 20
-1727.939661568883
 10
765.9372271848179
 20
-1712.893551546603
 10
768.0265053418476
 20
-1697.810923512179
 10
772.085516842569
 20
-1695.183004676031
 10
776.2168753484806
 20
-1692.428306326025
 10
781.4305106010834
 20
-1690.051190441203
 10
785.5765107628073
 20
-1688.160522038897
 10
792.662899921192
 20
-1684.93453462651
 10
798.7143823958075
 20
-1685.818546128025
 10
807.1993080664294
 20
-1687.05740246452
 10
803.5347599987691
 20
-1698.247761619709
 10
802.2418156631549
 20
-1705.218567824563
 10
800.5211627230468
 20
-1714.495520947244
 10
798.9402084048656
 20
-1722.357917863681
 10
797.3034435398234
 20
-1731.320678278107
 10
795.5528182689937
 20
-1740.907689994461
 10
794.1327499099738
 20
-1747.867816403311
 10
803.2999767414493
 20
-1748.957500105295
 10
819.8901785602185
 20
-1750.930850799247
 10
835.2299829726162
 20
-1745.102438257301
 10
847.3916867998709
 20
-1742.25541134829
 10
847.7386079152355
 20
-1738.485098849233
 10
849.7419309399083
 20
-1734.497056315508
 10
849.1554034335445
 20
-1730.967900500418
 10
845.7990191570399
 20
-1731.985581706761
 10
834.9455903403087
 20
-1737.181474717614
 10
831.1658038286669
 20
-1733.084567166555
 10
829.4405000096538
 20
-1731.214569337162
 10
830.7785750961249
 20
-1724.418084963861
 10
831.5185816063565
 20
-1720.033167430235
 10
833.3875459071046
 20
-1708.959941521545
 10
834.7929726103122
 20
-1703.054358840729
 10
836.8095592526032
 20
-1693.578279199001
 10
837.754376689433
 20
-1689.139618175805
 10
839.443507005851
 20
-1684.127004244767
 10
838.9260536639664
 20
-1679.822012926399
 10
838.1374713073927
 20
-1673.259795046095
 10
831.7922944426596
 20
-1670.176434586796
 10
825.5220484047306
 20
-1669.592835411595
 10
803.3197860404896
 20
-1667.523711063154
 10
784.5474607413631
 20
-1678.838093655811
 10
770.1429997532108
 20
-1684.407435017266
 10
771.3396536700124
 20
-1674.359469524987
 10
764.8661469984536
 20
-1670.240513362822
 10
757.0917722716646
 20
-1669.592835411595
 10
736.4723590281216
 20
-1667.874421783552
 10
715.0581622561314
 20
-1678.294457588239
 10
702.7708846984392
 20
-1684.407435017266
 10
702.994471395432
 20
-1680.491739488731
 10
705.2310273844562
 20
-1675.306181764333
 10
703.1236624761289
 20
-1672.061590836325
 97
        0
 92
        1
 93
        1
 72
     4
 94
        3
 73
     0
 74
     1
 95
       32
 96
       28
 40
0.0
 40
0.0
 40
0.0
 40
0.0
 40
1.0
 40
1.0
 40
1.0
 40
2.0
 40
2.0
 40
2.0
 40
3.0
 40
3.0
 40
3.0
 40
4.0
 40
4.0
 40
4.0
 40
5.0
 40
5.0
 40
5.0
 40
6.0
 40
6.0
 40
6.0
 40
7.0
 40
7.0
 40
7.0
 40
8.0
 40
8.0
 40
8.0
 40
9.0
 40
9.0
 40
9.0
 40
9.0
 10
943.688134529703
 20
-1683.349101684197
 10
932.815757687803
 20
-1691.770982107439
 10
925.1080455586535
 20
-1706.011628805268
 10
926.7568682578942
 20
-1723.560945207131
 10
929.9229110088388
 20
-1757.258802186553
 10
990.8477021177395
 20
-1751.355286563029
 10
1017.761821577157
 20
-1741.549855792911
 10
1018.447395578722
 20
-1737.062274413825
 10
1018.930397965754
 20
-1732.371432401109
 10
1019.878488243294
 20
-1728.146367297998
 10
1007.140592196132
 20
-1734.540464518622
 10
979.1850203715233
 20
-1742.831431313424
 10
966.9683672712788
 20
-1730.615122722728
 10
955.3318682507504
 20
-1718.979657230846
 10
964.3742103708856
 20
-1692.820358192246
 10
975.4340004071832
 20
-1685.465768350335
 10
985.6872935903838
 20
-1678.647235365929
 10
1007.50990643215
 20
-1677.547216377488
 10
1007.885421840043
 20
-1693.578279199001
 10
1013.170198314416
 20
-1693.337122515034
 10
1018.628607601246
 20
-1693.268909624426
 10
1023.758354778783
 20
-1692.872723643622
 10
1024.88937962659
 20
-1685.303159843431
 10
1026.624329712962
 20
-1678.337176772256
 10
1028.696899156888
 20
-1671.708813058635
 10
997.0581757489994
 20
-1667.146817617067
 10
962.8759383443505
 20
-1668.485581722636
 10
943.688134529703
 20
-1683.349101684197
 97
        0
 92
        1
 93
        1
 72
     4
 94
        3
 73
     0
 74
     1
 95
       50
 96
       46
 40
0.0
 40
0.0
 40
0.0
 40
0.0
 40
1.0
 40
1.0
 40
1.0
 40
2.0
 40
2.0
 40
2.0
 40
3.0
 40
3.0
 40
3.0
 40
4.0
 40
4.0
 40
4.0
 40
5.0
 40
5.0
 40
5.0
 40
6.0
 40
6.0
 40
6.0
 40
7.0
 40
7.0
 40
7.0
 40
8.0
 40
8.0
 40
8.0
 40
9.0
 40
9.0
 40
9.0
 40
10.0
 40
10.0
 40
10.0
 40
11.0
 40
11.0
 40
11.0
 40
12.0
 40
12.0
 40
12.0
 40
13.0
 40
13.0
 40
13.0
 40
14.0
 40
14.0
 40
14.0
 40
15.0
 40
15.0
 40
15.0
 40
15.0
 10
1463.264688761788
 20
-1733.437344944245
 10
1458.90595395385
 20
-1729.720775934757
 10
1463.351849677565
 20
-1712.864612744527
 10
1464.323022094857
 20
-1707.335234490701
 10
1464.995849243126
 20
-1703.502221253812
 10
1465.67694462056
 20
-1698.677709536268
 10
1466.439344251446
 20
-1693.931056976691
 10
1467.143177259082
 20
-1689.548206500356
 10
1468.700015908867
 20
-1683.907207152808
 10
1467.497333074966
 20
-1680.174790704088
 10
1464.272723700772
 20
-1670.164032243049
 10
1437.78717411972
 20
-1667.948146826937
 10
1424.111178571924
 20
-1669.592835411595
 10
1406.252492595486
 20
-1671.739818918003
 10
1389.888978059646
 20
-1671.013592789712
 10
1375.434046422635
 20
-1675.941457371813
 10
1375.148448006907
 20
-1682.00551444495
 10
1373.894777759825
 20
-1687.100810667635
 10
1372.612168710667
 20
-1692.167168088243
 10
1378.951488913075
 20
-1691.941858843508
 10
1384.540122809247
 20
-1692.467580414557
 10
1390.601423805996
 20
-1692.519945865933
 10
1396.707855553601
 20
-1684.0491450868
 10
1407.257426948533
 20
-1678.983476685289
 10
1422.700067461165
 20
-1680.174790704088
 10
1427.320974035531
 20
-1680.531013577263
 10
1431.853686165474
 20
-1681.935234497051
 10
1433.282367263207
 20
-1685.112990572645
 10
1435.036954393845
 20
-1689.015594738336
 10
1433.242748665127
 20
-1694.928067610122
 10
1432.576811707828
 20
-1699.574812400627
 10
1431.016872472107
 20
-1710.462003153114
 10
1429.440396778057
 20
-1718.515947378531
 10
1427.991389616961
 20
-1728.851922853377
 10
1426.283311275374
 20
-1741.034469508318
 10
1426.038709495921
 20
-1747.972891815611
 10
1437.867789354075
 20
-1748.957500105295
 10
1453.142998226124
 20
-1750.22942935845
 10
1469.694614975458
 20
-1745.624025713768
 10
1481.606721634807
 20
-1742.25541134829
 10
1481.587429100089
 20
-1738.58845171379
 10
1482.897943422678
 20
-1734.379234049912
 10
1481.959499412496
 20
-1730.967900500418
 10
1477.863969899631
 20
-1732.209512913302
 10
1467.916256685972
 20
-1737.404027885962
 10
1463.264688761788
 20
-1733.437344944245
 97
        0
 92
        1
 93
        1
 72
     4
 94
        3
 73
     0
 74
     1
 95
       26
 96
       22
 40
0.0
 40
0.0
 40
0.0
 40
0.0
 40
1.0
 40
1.0
 40
1.0
 40
2.0
 40
2.0
 40
2.0
 40
3.0
 40
3.0
 40
3.0
 40
4.0
 40
4.0
 40
4.0
 40
5.0
 40
5.0
 40
5.0
 40
6.0
 40
6.0
 40
6.0
 40
7.0
 40
7.0
 40
7.0
 40
7.0
 10
1039.984065495212
 20
-1722.502611874062
 10
1041.821334917496
 20
-1744.559491208825
 10
1062.518435064232
 20
-1748.477942813749
 10
1087.250431043292
 20
-1748.957500105295
 10
1088.113771971895
 20
-1745.35255218953
 10
1088.685657822447
 20
-1741.45683821481
 10
1089.367097709429
 20
-1737.669989257423
 10
1083.349204915795
 20
-1737.09603634958
 10
1079.054893393431
 20
-1734.098114258316
 10
1077.021253528488
 20
-1729.910256186446
 10
1069.637035865403
 20
-1714.704293733651
 10
1078.839230416054
 20
-1690.714026812565
 10
1090.425086532949
 20
-1684.054657239577
 10
1092.988582083524
 20
-1682.581534410084
 10
1095.884529348425
 20
-1681.803631849514
 10
1098.185164113475
 20
-1681.23243501806
 10
1098.418397077826
 20
-1677.232679159685
 10
1099.467773162633
 20
-1674.049410931314
 10
1099.596275224233
 20
-1669.944924170188
 10
1067.509689403262
 20
-1671.405644655933
 10
1037.024039454286
 20
-1686.960939790933
 10
1039.984065495212
 20
-1722.502611874062
 97
        0
 92
        1
 93
        1
 72
     4
 94
        3
 73
     0
 74
     1
 95
       23
 96
       19
 40
0.0
 40
0.0
 40
0.0
 40
0.0
 40
1.0
 40
1.0
 40
1.0
 40
2.0
 40
2.0
 40
2.0
 40
3.0
 40
3.0
 40
3.0
 40
4.0
 40
4.0
 40
4.0
 40
5.0
 40
5.0
 40
5.0
 40
6.0
 40
6.0
 40
6.0
 40
6.0
 10
1108.767463915517
 20
-1681.58521279575
 10
1118.057508401041
 20
-1681.68098645024
 10
1122.269137631759
 20
-1689.681876205184
 10
1122.876507965809
 20
-1698.163701289869
 10
1124.174619944651
 20
-1716.289037656865
 10
1116.698073722562
 20
-1736.321578884496
 10
1099.949053001922
 20
-1737.669989257423
 10
1099.48017550638
 20
-1741.551922850202
 10
1098.932749833774
 20
-1745.354619246821
 10
1098.185164113475
 20
-1748.957500105295
 10
1131.586742881166
 20
-1748.231273977005
 10
1160.801841615182
 20
-1732.349383790003
 10
1157.091818287116
 20
-1696.400501420518
 10
1154.927953812831
 20
-1675.432961278191
 10
1134.557793227645
 20
-1670.155074994788
 10
1110.883786072106
 20
-1669.944924170188
 10
1109.917092278944
 20
-1673.564341486991
 10
1109.320746250448
 20
-1677.553073039813
 10
1108.767463915517
 20
-1681.58521279575
 97
        0
 92
        1
 93
        1
 72
     4
 94
        3
 73
     0
 74
     1
 95
       41
 96
       37
 40
0.0
 40
0.0
 40
0.0
 40
0.0
 40
1.0
 40
1.0
 40
1.0
 40
2.0
 40
2.0
 40
2.0
 40
3.0
 40
3.0
 40
3.0
 40
4.0
 40
4.0
 40
4.0
 40
5.0
 40
5.0
 40
5.0
 40
6.0
 40
6.0
 40
6.0
 40
7.0
 40
7.0
 40
7.0
 40
8.0
 40
8.0
 40
8.0
 40
9.0
 40
9.0
 40
9.0
 40
10.0
 40
10.0
 40
10.0
 40
11.0
 40
11.0
 40
11.0
 40
12.0
 40
12.0
 40
12.0
 40
12.0
 10
1278.432215392198
 20
-1737.669989257423
 10
1302.12206998697
 20
-1718.561422638936
 10
1324.694680115875
 20
-1698.335956064131
 10
1343.687836035606
 20
-1674.531035280152
 10
1342.917857194652
 20
-1673.41964747661
 10
1341.830240549959
 20
-1672.625897476809
 10
1341.218736101327
 20
-1671.356035280946
 10
1311.563698673845
 20
-1671.151396609122
 10
1277.69358692016
 20
-1671.482814794803
 10
1248.097116115927
 20
-1671.356035280946
 10
1244.717477444897
 20
-1677.85279634703
 10
1242.718977553904
 20
-1685.731040702699
 10
1239.631482980023
 20
-1692.519945865933
 10
1244.56968284858
 20
-1692.519945865933
 10
1249.507882717137
 20
-1692.519945865933
 10
1254.446427095243
 20
-1692.519945865933
 10
1259.584442501944
 20
-1677.905161798406
 10
1283.258105147936
 20
-1681.82568046062
 10
1301.712448133773
 20
-1680.527568481778
 10
1281.068057947962
 20
-1704.680443909768
 10
1256.771522038238
 20
-1725.180140085198
 10
1230.10751651105
 20
-1743.313744681359
 10
1231.182386302447
 20
-1745.178230357976
 10
1231.952365143401
 20
-1747.347951494587
 10
1233.634949778397
 20
-1748.604722327606
 10
1260.417466590278
 20
-1746.266191512218
 10
1298.959127821962
 20
-1749.273759870841
 10
1326.051358717966
 20
-1748.251944549916
 10
1332.48989767035
 20
-1748.009409827755
 10
1333.162724818619
 20
-1744.727611868506
 10
1335.222202899701
 20
-1740.13943370125
 10
1336.469327465362
 20
-1737.361308701944
 10
1338.18188443108
 20
-1734.805736870986
 10
1338.04408061167
 20
-1732.379011611176
 10
1321.195496631507
 20
-1736.929293728094
 10
1298.529524414951
 20
-1737.543898762663
 10
1278.432215392198
 20
-1737.669989257423
 97
        0
 92
        1
 93
        1
 72
     4
 94
        3
 73
     0
 74
     1
 95
       26
 96
       22
 40
0.0
 40
0.0
 40
0.0
 40
0.0
 40
1.0
 40
1.0
 40
1.0
 40
2.0
 40
2.0
 40
2.0
 40
3.0
 40
3.0
 40
3.0
 40
4.0
 40
4.0
 40
4.0
 40
5.0
 40
5.0
 40
5.0
 40
6.0
 40
6.0
 40
6.0
 40
7.0
 40
7.0
 40
7.0
 40
7.0
 10
570.4957545231747
 20
-1701.691479066765
 10
552.0085108754528
 20
-1703.656561531551
 10
522.4945501080916
 20
-1706.318931322552
 10
511.5892726043076
 20
-1717.917189783194
 10
507.9338540396832
 20
-1721.80463552875
 10
504.7509303208609
 20
-1730.310576281832
 10
507.3564560363553
 20
-1737.317211479733
 10
514.0251273671535
 20
-1755.25100053775
 10
550.4254894999805
 20
-1749.08496863825
 10
565.204776876928
 20
-1741.549855792911
 10
565.3067517032914
 20
-1738.239119031586
 10
566.6362140510493
 20
-1734.285871962262
 10
565.9101601775329
 20
-1731.320678278107
 10
559.0037772582525
 20
-1735.795857313447
 10
540.8620766877011
 20
-1738.704206922095
 10
539.4550996915251
 20
-1728.499145075688
 10
537.4884669337703
 20
-1714.233693690365
 10
556.3822318487516
 20
-1712.84532020981
 10
569.0848156671906
 20
-1711.920656581568
 10
569.7640162421077
 20
-1708.95167329238
 10
570.5448471338395
 20
-1704.213288961968
 10
570.4957545231747
 20
-1701.691479066765
 97
        0
 92
        1
 93
        1
 72
     4
 94
        3
 73
     0
 74
     1
 95
       26
 96
       22
 40
0.0
 40
0.0
 40
0.0
 40
0.0
 40
1.0
 40
1.0
 40
1.0
 40
2.0
 40
2.0
 40
2.0
 40
3.0
 40
3.0
 40
3.0
 40
4.0
 40
4.0
 40
4.0
 40
5.0
 40
5.0
 40
5.0
 40
6.0
 40
6.0
 40
6.0
 40
7.0
 40
7.0
 40
7.0
 40
7.0
 10
1421.642078637645
 20
-1701.691479066765
 10
1403.155007244697
 20
-1703.656561531551
 10
1373.640874222562
 20
-1706.318242303455
 10
1362.735424464004
 20
-1717.917189783194
 10
1359.080178154154
 20
-1721.80463552875
 10
1355.89759894488
 20
-1730.310576281832
 10
1358.502780150826
 20
-1737.317211479733
 10
1365.171106972075
 20
-1755.25100053775
 10
1401.571985869225
 20
-1749.08496863825
 10
1416.351100991398
 20
-1741.549855792911
 10
1416.453075817762
 20
-1738.239119031586
 10
1417.78253816552
 20
-1734.285871962262
 10
1417.056656546778
 20
-1731.320678278107
 10
1410.148895589303
 20
-1735.797235351641
 10
1392.007711783074
 20
-1738.702139864804
 10
1390.601423805996
 20
-1728.499145075688
 10
1388.635307812563
 20
-1714.233693690365
 10
1407.528211453674
 20
-1712.846009228907
 10
1420.231312036435
 20
-1711.920656581568
 10
1420.910340356578
 20
-1708.95167329238
 10
1421.691343503084
 20
-1704.213288961968
 10
1421.642078637645
 20
-1701.691479066765
 97
        0
 92
        1
 93
        1
 72
     4
 94
        3
 73
     0
 74
     1
 95
       14
 96
       10
 40
0.0
 40
0.0
 40
0.0
 40
0.0
 40
1.0
 40
1.0
 40
1.0
 40
2.0
 40
2.0
 40
2.0
 40
3.0
 40
3.0
 40
3.0
 40
3.0
 10
869.2609806854625
 20
-1735.201233832693
 10
863.4174097233818
 20
-1753.047517465384
 10
901.2362899222604
 20
-1752.340583871811
 10
904.5346243398386
 20
-1740.844989256629
 10
908.188148101946
 20
-1728.109849285855
 10
893.4241913999078
 20
-1726.554733183813
 10
882.6651581994727
 20
-1727.793589520309
 10
875.6071910788413
 20
-1728.60594303573
 10
870.590787542769
 20
-1731.139466255583
 10
869.2609806854625
 20
-1735.201233832693
 97
        0
 92
        1
 93
        1
 72
     4
 94
        3
 73
     0
 74
     1
 95
       14
 96
       10
 40
0.0
 40
0.0
 40
0.0
 40
0.0
 40
1.0
 40
1.0
 40
1.0
 40
2.0
 40
2.0
 40
2.0
 40
3.0
 40
3.0
 40
3.0
 40
3.0
 10
1180.019617760551
 20
-1735.201233832693
 10
1174.176391308019
 20
-1753.047517465384
 10
1211.995616016446
 20
-1752.340583871811
 10
1215.292916905378
 20
-1740.844989256629
 10
1218.94540713884
 20
-1728.109849285855
 10
1204.183517494093
 20
-1726.554733183813
 10
1193.423450765012
 20
-1727.793589520309
 10
1186.365828153929
 20
-1728.60594303573
 10
1181.349080108309
 20
-1731.139466255583
 10
1180.019617760551
 20
-1735.201233832693
 97
        0
 92
        1
 93
        2
 72
     4
 94
        3
 73
     0
 74
     0
 95
       17
 96
       13
 40
0.0
 40
0.0
 40
0.0
 40
0.0
 40
0.3527777776895833
 40
0.3527777776895833
 40
0.3527777776895833
 40
0.7055555553791667
 40
0.7055555553791667
 40
0.7055555553791667
 40
1.05833333306875
 40
1.05833333306875
 40
1.05833333306875
 40
1.411111110758333
 40
1.411111110758333
 40
1.411111110758333
 40
1.411111110758333
 10
219.5259629442505
 20
-1350.368220691054
 10
739.4721759219028
 20
-1350.368220691054
 10
1258.253257606444
 20
-1350.368220691054
 10
1778.255970150054
 20
-1350.368220691054
 10
1779.593700726977
 20
-1350.451247492248
 10
1780.372292306643
 20
-1350.368909710151
 10
1780.372292306643
 20
-1350.368909710151
 10
1780.370914268449
 20
-1341.680723405899
 10
1780.370914268449
 20
-1330.127251186565
 10
1780.372636816192
 20
-1321.79735481278
 10
1260.426079328991
 20
-1321.79735481278
 10
739.5281587235381
 20
-1321.79735481278
 10
219.5259629442505
 20
-1321.79735481278
 72
     1
 10
219.5259629442505
 20
-1321.79735481278
 11
219.5259629442505
 21
-1350.368220691054
 97
        0
 92
        1
 93
        2
 72
     4
 94
        3
 73
     0
 74
     0
 95
       17
 96
       13
 40
0.0
 40
0.0
 40
0.0
 40
0.0
 40
0.3527777776895833
 40
0.3527777776895833
 40
0.3527777776895833
 40
0.7055555553791667
 40
0.7055555553791667
 40
0.7055555553791667
 40
1.05833333306875
 40
1.05833333306875
 40
1.05833333306875
 40
1.411111110758333
 40
1.411111110758333
 40
1.411111110758333
 40
1.411111110758333
 10
219.5259629442505
 20
-1607.864303525985
 10
739.4721759219028
 20
-1607.864303525985
 10
1258.253257606444
 20
-1607.864303525985
 10
1778.255970150054
 20
-1607.864303525985
 10
1779.937521256405
 20
-1607.891519780319
 10
1780.372292306643
 20
-1607.864303525985
 10
1780.372292306643
 20
-1607.864303525985
 10
1780.370914268449
 20
-1599.33114651857
 10
1780.370914268449
 20
-1588.14113187293
 10
1780.372636816192
 20
-1579.292748628614
 10
1260.426079328991
 20
-1579.292748628614
 10
739.5281587235381
 20
-1579.292748628614
 10
219.5259629442505
 20
-1579.292748628614
 72
     1
 10
219.5259629442505
 20
-1579.292748628614
 11
219.5259629442505
 21
-1607.864303525985
 97
        0
 75
     0
 76
     1
 98
        0
  0
ENDSEC
  0
SECTION
  2
OBJECTS
  0
DICTIONARY
  5
C
330
0
100
AcDbDictionary
281
     1
  3
ACAD_GROUP
350
D
  3
ACAD_LAYOUT
350
1A
  3
ACAD_MLINESTYLE
350
17
  3
ACAD_PLOTSETTINGS
350
19
  3
ACAD_PLOTSTYLENAME
350
E
  3
ACAD_TABLESTYLE
350
70
  3
ACAD_VISUALSTYLE
350
2A
  0
DICTIONARY
  5
D
102
{ACAD_REACTORS
330
C
102
}
330
C
100
AcDbDictionary
281
     1
  0
DICTIONARY
  5
1A
102
{ACAD_REACTORS
330
C
102
}
330
C
100
AcDbDictionary
281
     1
  3
Layout1
350
1E
  3
Layout2
350
26
  3
Model
350
22
  0
DICTIONARY
  5
17
102
{ACAD_REACTORS
330
C
102
}
330
C
100
AcDbDictionary
281
     1
  3
Standard
350
18
  0
DICTIONARY
  5
19
102
{ACAD_REACTORS
330
C
102
}
330
C
100
AcDbDictionary
281
     1
  0
ACDBDICTIONARYWDFLT
  5
E
102
{ACAD_REACTORS
330
C
102
}
330
C
100
AcDbDictionary
281
     1
  3
Normal
350
F
100
AcDbDictionaryWithDefault
340
F
  0
DICTIONARY
  5
70
102
{ACAD_REACTORS
330
C
102
}
330
C
100
AcDbDictionary
281
     1
  0
DICTIONARY
  5
2A
102
{ACAD_REACTORS
330
C
102
}
330
C
100
AcDbDictionary
281
     1
  3
2dWireframe
350
2F
  3
3D Hidden
350
31
  3
3dWireframe
350
30
  3
Basic
350
32
  3
Brighten
350
36
  3
ColorChange
350
3A
  3
Conceptual
350
34
  3
Dim
350
35
  3
Facepattern
350
39
  3
Flat
350
2B
  3
FlatWithEdges
350
2C
  3
Gouraud
350
2D
  3
GouraudWithEdges
350
2E
  3
Linepattern
350
38
  3
Realistic
350
33
  3
Thicken
350
37
  0
LAYOUT
  5
1E
102
{ACAD_REACTORS
330
1A
102
}
330
1A
100
AcDbPlotSettings
  1

  2
none_device
  4

  6

 40
0.0
 41
0.0
 42
0.0
 43
0.0
 44
0.0
 45
0.0
 46
0.0
 47
0.0
 48
0.0
 49
0.0
140
0.0
141
0.0
142
1.0
143
1.0
 70
   688
 72
     0
 73
     0
 74
     5
  7

 75
    16
 76
     0
 77
     2
 78
   300
147
1.0
148
0.0
149
0.0
100
AcDbLayout
  1
Layout1
 70
     1
 71
     1
 10
0.0
 20
0.0
 11
12.0
 21
9.0
 12
0.0
 22
0.0
 32
0.0
 14
1.000000000000000E+20
 24
1.000000000000000E+20
 34
1.000000000000000E+20
 15
-1.000000000000000E+20
 25
-1.000000000000000E+20
 35
-1.000000000000000E+20
146
0.0
 13
0.0
 23
0.0
 33
0.0
 16
1.0
 26
0.0
 36
0.0
 17
0.0
 27
1.0
 37
0.0
 76
     0
330
1B
  0
LAYOUT
  5
26
102
{ACAD_REACTORS
330
1A
102
}
330
1A
100
AcDbPlotSettings
  1

  2
none_device
  4

  6

 40
0.0
 41
0.0
 42
0.0
 43
0.0
 44
0.0
 45
0.0
 46
0.0
 47
0.0
 48
0.0
 49
0.0
140
0.0
141
0.0
142
1.0
143
1.0
 70
   688
 72
     0
 73
     0
 74
     5
  7

 75
    16
 76
     0
 77
     2
 78
   300
147
1.0
148
0.0
149
0.0
100
AcDbLayout
  1
Layout2
 70
     1
 71
     2
 10
0.0
 20
0.0
 11
0.0
 21
0.0
 12
0.0
 22
0.0
 32
0.0
 14
0.0
 24
0.0
 34
0.0
 15
0.0
 25
0.0
 35
0.0
146
0.0
 13
0.0
 23
0.0
 33
0.0
 16
1.0
 26
0.0
 36
0.0
 17
0.0
 27
1.0
 37
0.0
 76
     0
330
23
  0
LAYOUT
  5
22
102
{ACAD_REACTORS
330
1A
102
}
330
1A
100
AcDbPlotSettings
  1

  2
none_device
  4

  6

 40
0.0
 41
0.0
 42
0.0
 43
0.0
 44
0.0
 45
0.0
 46
0.0
 47
0.0
 48
0.0
 49
0.0
140
0.0
141
0.0
142
1.0
143
1.0
 70
  1712
 72
     0
 73
     0
 74
     0
  7

 75
     0
 76
     0
 77
     2
 78
   300
147
1.0
148
0.0
149
0.0
100
AcDbLayout
  1
Model
 70
     1
 71
     0
 10
0.0
 20
0.0
 11
12.0
 21
9.0
 12
0.0
 22
0.0
 32
0.0
 14
1.000000000000000E+20
 24
1.000000000000000E+20
 34
1.000000000000000E+20
 15
-1.000000000000000E+20
 25
-1.000000000000000E+20
 35
-1.000000000000000E+20
146
0.0
 13
0.0
 23
0.0
 33
0.0
 16
1.0
 26
0.0
 36
0.0
 17
0.0
 27
1.0
 37
0.0
 76
     0
330
1F
331
29
  0
MLINESTYLE
  5
18
102
{ACAD_REACTORS
330
17
102
}
330
17
100
AcDbMlineStyle
  2
Standard
 70
     0
  3

 62
   256
 51
90.0
 52
90.0
 71
     2
 49
0.5
 62
   256
  6
BYLAYER
 49
-0.5
 62
   256
  6
BYLAYER
  0
ACDBPLACEHOLDER
  5
F
102
{ACAD_REACTORS
330
E
102
}
330
E
  0
VISUALSTYLE
  5
2F
102
{ACAD_REACTORS
330
2A
102
}
330
2A
100
AcDbVisualStyle
  2
2dWireframe
 70
     4
 71
     0
 72
     2
 73
     0
 90
        0
 40
-0.6
 41
-30.0
 62
     5
 63
     7
421
 16777215
 74
     1
 91
        4
 64
     7
 65
   257
 75
     1
175
     1
 42
1.0
 92
        0
 66
   257
 43
1.0
 76
     1
 77
     6
 78
     2
 67
     7
 79
     5
170
     0
171
     0
290
     0
174
     0
 93
        1
 44
0.0
173
     0
291
     0
 45
0.0
1001
ACAD
1000
AcDbSavedByObjectVersion
1070
     0
  0
VISUALSTYLE
  5
31
102
{ACAD_REACTORS
330
2A
102
}
330
2A
100
AcDbVisualStyle
  2
3D Hidden
 70
     6
 71
     1
 72
     2
 73
     2
 90
        0
 40
-0.6
 41
-30.0
 62
     5
 63
     7
421
 16777215
 74
     2
 91
        2
 64
     7
 65
   257
 75
     2
175
     1
 42
40.0
 92
        0
 66
   257
 43
1.0
 76
     1
 77
     6
 78
     2
 67
     7
 79
     3
170
     0
171
     0
290
     0
174
     0
 93
        1
 44
0.0
173
     0
291
     0
 45
0.0
1001
ACAD
1000
AcDbSavedByObjectVersion
1070
     0
  0
VISUALSTYLE
  5
30
102
{ACAD_REACTORS
330
2A
102
}
330
2A
100
AcDbVisualStyle
  2
3dWireframe
 70
     5
 71
     0
 72
     2
 73
     0
 90
        0
 40
-0.6
 41
-30.0
 62
     5
 63
     7
421
 16777215
 74
     1
 91
        4
 64
     7
 65
   257
 75
     1
175
     1
 42
1.0
 92
        0
 66
   257
 43
1.0
 76
     1
 77
     6
 78
     2
 67
     7
 79
     5
170
     0
171
     0
290
     0
174
     0
 93
        1
 44
0.0
173
     0
291
     0
 45
0.0
1001
ACAD
1000
AcDbSavedByObjectVersion
1070
     0
  0
VISUALSTYLE
  5
32
102
{ACAD_REACTORS
330
2A
102
}
330
2A
100
AcDbVisualStyle
  2
Basic
 70
     7
 71
     1
 72
     0
 73
     1
 90
        0
 40
-0.6
 41
-30.0
 62
     5
 63
     7
421
 16777215
 74
     0
 91
        4
 64
     7
 65
   257
 75
     1
175
     1
 42
1.0
 92
        8
 66
     7
 43
1.0
 76
     1
 77
     6
 78
     2
 67
     7
 79
     5
170
     0
171
     0
290
     0
174
     0
 93
        1
 44
0.0
173
     0
291
     1
 45
0.0
1001
ACAD
1000
AcDbSavedByObjectVersion
1070
     0
  0
VISUALSTYLE
  5
36
102
{ACAD_REACTORS
330
2A
102
}
330
2A
100
AcDbVisualStyle
  2
Brighten
 70
    12
 71
     2
 72
     2
 73
     0
 90
        0
 40
-0.6
 41
-30.0
 62
     5
 63
     7
421
 16777215
 74
     1
 91
        4
 64
     7
 65
   257
 75
     1
175
     1
 42
1.0
 92
        8
 66
     7
 43
1.0
 76
     1
 77
     6
 78
     2
 67
     7
 79
     5
170
     0
171
     0
290
     0
174
     0
 93
        1
 44
50.0
173
     0
291
     1
 45
0.0
1001
ACAD
1000
AcDbSavedByObjectVersion
1070
     0
  0
VISUALSTYLE
  5
3A
102
{ACAD_REACTORS
330
2A
102
}
330
2A
100
AcDbVisualStyle
  2
ColorChange
 70
    16
 71
     2
 72
     2
 73
     3
 90
        0
 40
-0.6
 41
-30.0
 62
     5
 63
     8
421
  8421504
 74
     1
 91
        4
 64
     7
 65
   257
 75
     1
175
     1
 42
1.0
 92
        8
 66
     8
424
  8421504
 43
1.0
 76
     1
 77
     6
 78
     2
 67
     7
 79
     5
170
     0
171
     0
290
     0
174
     0
 93
        1
 44
0.0
173
     0
291
     1
 45
0.0
1001
ACAD
1000
AcDbSavedByObjectVersion
1070
     0
  0
VISUALSTYLE
  5
34
102
{ACAD_REACTORS
330
2A
102
}
330
2A
100
AcDbVisualStyle
  2
Conceptual
 70
     9
 71
     3
 72
     2
 73
     0
 90
        0
 40
-0.6
 41
-30.0
 62
     5
 63
     7
421
 16777215
 74
     2
 91
        2
 64
     7
 65
   257
 75
     1
175
     1
 42
40.0
 92
        8
 66
     7
 43
1.0
 76
     1
 77
     6
 78
     2
 67
     7
 79
     3
170
     0
171
     0
290
     0
174
     0
 93
        1
 44
0.0
173
     0
291
     0
 45
0.0
1001
ACAD
1000
AcDbSavedByObjectVersion
1070
     0
  0
VISUALSTYLE
  5
35
102
{ACAD_REACTORS
330
2A
102
}
330
2A
100
AcDbVisualStyle
  2
Dim
 70
    11
 71
     2
 72
     2
 73
     0
 90
        0
 40
-0.6
 41
-30.0
 62
     5
 63
     7
421
 16777215
 74
     1
 91
        4
 64
     7
 65
   257
 75
     1
175
     1
 42
1.0
 92
        8
 66
     7
 43
1.0
 76
     1
 77
     6
 78
     2
 67
     7
 79
     5
170
     0
171
     0
290
     0
174
     0
 93
        1
 44
-50.0
173
     0
291
     1
 45
0.0
1001
ACAD
1000
AcDbSavedByObjectVersion
1070
     0
  0
VISUALSTYLE
  5
39
102
{ACAD_REACTORS
330
2A
102
}
330
2A
100
AcDbVisualStyle
  2
Facepattern
 70
    15
 71
     2
 72
     2
 73
     0
 90
        0
 40
-0.6
 41
-30.0
 62
     5
 63
     7
421
 16777215
 74
     1
 91
        4
 64
     7
 65
   257
 75
     1
175
     1
 42
1.0
 92
        8
 66
     7
 43
1.0
 76
     1
 77
     6
 78
     2
 67
     7
 79
     5
170
     0
171
     0
290
     0
174
     0
 93
        1
 44
0.0
173
     0
291
     1
 45
0.0
1001
ACAD
1000
AcDbSavedByObjectVersion
1070
     0
  0
VISUALSTYLE
  5
2B
102
{ACAD_REACTORS
330
2A
102
}
330
2A
100
AcDbVisualStyle
  2
Flat
 70
     0
 71
     2
 72
     1
 73
     1
 90
        2
 40
-0.6
 41
30.0
 62
     5
 63
     7
421
 16777215
 74
     0
 91
        4
 64
     7
 65
   257
 75
     1
175
     1
 42
1.0
 92
        8
 66
     7
 43
1.0
 76
     1
 77
     6
 78
     2
 67
     7
 79
     5
170
     0
171
     0
290
     0
174
     0
 93
       13
 44
0.0
173
     0
291
     1
 45
0.0
1001
ACAD
1000
AcDbSavedByObjectVersion
1070
     0
  0
VISUALSTYLE
  5
2C
102
{ACAD_REACTORS
330
2A
102
}
330
2A
100
AcDbVisualStyle
  2
FlatWithEdges
 70
     1
 71
     2
 72
     1
 73
     1
 90
        2
 40
-0.6
 41
30.0
 62
     5
 63
     7
421
 16777215
 74
     1
 91
        4
 64
     7
 65
   257
 75
     1
175
     1
 42
1.0
 92
        0
 66
   257
 43
1.0
 76
     1
 77
     6
 78
     2
 67
     7
 79
     5
170
     0
171
     0
290
     0
174
     0
 93
       13
 44
0.0
173
     0
291
     1
 45
0.0
1001
ACAD
1000
AcDbSavedByObjectVersion
1070
     0
  0
VISUALSTYLE
  5
2D
102
{ACAD_REACTORS
330
2A
102
}
330
2A
100
AcDbVisualStyle
  2
Gouraud
 70
     2
 71
     2
 72
     2
 73
     1
 90
        2
 40
-0.6
 41
30.0
 62
     5
 63
     7
421
 16777215
 74
     0
 91
        4
 64
     7
 65
   257
 75
     1
175
     1
 42
1.0
 92
        0
 66
     7
 43
1.0
 76
     1
 77
     6
 78
     2
 67
     7
 79
     5
170
     0
171
     0
290
     0
174
     0
 93
       13
 44
0.0
173
     0
291
     1
 45
0.0
1001
ACAD
1000
AcDbSavedByObjectVersion
1070
     0
  0
VISUALSTYLE
  5
2E
102
{ACAD_REACTORS
330
2A
102
}
330
2A
100
AcDbVisualStyle
  2
GouraudWithEdges
 70
     3
 71
     2
 72
     2
 73
     1
 90
        2
 40
-0.6
 41
30.0
 62
     5
 63
     7
421
 16777215
 74
     1
 91
        4
 64
     7
 65
   257
 75
     1
175
     1
 42
1.0
 92
        0
 66
   257
 43
1.0
 76
     1
 77
     6
 78
     2
 67
     7
 79
     5
170
     0
171
     0
290
     0
174
     0
 93
       13
 44
0.0
173
     0
291
     1
 45
0.0
1001
ACAD
1000
AcDbSavedByObjectVersion
1070
     0
  0
VISUALSTYLE
  5
38
102
{ACAD_REACTORS
330
2A
102
}
330
2A
100
AcDbVisualStyle
  2
Linepattern
 70
    14
 71
     2
 72
     2
 73
     0
 90
        0
 40
-0.6
 41
-30.0
 62
     5
 63
     7
421
 16777215
 74
     1
 91
        4
 64
     7
 65
   257
 75
     7
175
     7
 42
1.0
 92
        8
 66
     7
 43
1.0
 76
     1
 77
     6
 78
     2
 67
     7
 79
     5
170
     0
171
     0
290
     0
174
     0
 93
        1
 44
0.0
173
     0
291
     1
 45
0.0
1001
ACAD
1000
AcDbSavedByObjectVersion
1070
     0
  0
VISUALSTYLE
  5
33
102
{ACAD_REACTORS
330
2A
102
}
330
2A
100
AcDbVisualStyle
  2
Realistic
 70
     8
 71
     2
 72
     2
 73
     0
 90
        0
 40
-0.6
 41
-30.0
 62
     5
 63
     7
421
 16777215
 74
     1
 91
        0
 64
     7
 65
   257
 75
     1
175
     1
 42
1.0
 92
        8
 66
     8
424
  7895160
 43
1.0
 76
     1
 77
     6
 78
     2
 67
     7
 79
     5
170
     0
171
     0
290
     0
174
     0
 93
       13
 44
0.0
173
     0
291
     0
 45
0.0
1001
ACAD
1000
AcDbSavedByObjectVersion
1070
     0
  0
VISUALSTYLE
  5
37
102
{ACAD_REACTORS
330
2A
102
}
330
2A
100
AcDbVisualStyle
  2
Thicken
 70
    13
 71
     2
 72
     2
 73
     0
 90
        0
 40
-0.6
 41
-30.0
 62
     5
 63
     7
421
 16777215
 74
     1
 91
        4
 64
     7
 65
   257
 75
     1
175
     1
 42
1.0
 92
       12
 66
     7
 43
1.0
 76
     1
 77
     6
 78
     2
 67
     7
 79
     5
170
     0
171
     0
290
     0
174
     0
 93
        1
 44
0.0
173
     0
291
     1
 45
0.0
1001
ACAD
1000
AcDbSavedByObjectVersion
1070
     0
  0
ENDSEC
  0
EOF
