  0
SECTION
  2
HEADER
  9
$ACADVER
  1
AC1009
  9
$EXTMIN
 10
30.00261835
 20
30.01400341
 30
0.0
  9
$EXTMAX
 10
1799.57138522
 20
2113.08576345
 30
0.0
  0
ENDSEC
  0
SECTION
  2
TABLES
  0
TABLE
  2
LAYER
 70
1
 0
LAYER
 2
METAL_FRAME
 70
0
 62
106
 6
CONTINUOUS
 0
ENDTAB
 0
ENDSEC
  0
SECTION
  2
ENTITIES
  0
POLYLINE
  8
METAL_FRAME
 62
256
 66
   1
 39
0.000000
 70
    1
  0
VERTEX
  8
0
 10
812.48264983
 20
40.66621111
  0
VERTEX
  8
0
 10
811.52407062
 20
30.62610899
  0
VERTEX
  8
0
 10
401.68096853
 20
33.30291893
  0
VERTEX
  8
0
 10
56.69664564
 20
30.01400341
 42
-0.68627863
  0
VERTEX
  8
0
 10
50.96619318
 20
99.09345293
  0
VERTEX
  8
0
 10
373.04926375
 20
145.47979586
  0
VERTEX
  8
0
 10
375.10845012
 20
145.80004560
  0
VERTEX
  8
0
 10
377.15990324
 20
146.16659591
  0
VERTEX
  8
0
 10
379.20262505
 20
146.57913129
  0
VERTEX
  8
0
 10
381.23561746
 20
147.03733626
  0
VERTEX
  8
0
 10
383.25788238
 20
147.54089532
  0
VERTEX
  8
0
 10
385.26842173
 20
148.08949299
  0
VERTEX
  8
0
 10
387.26623743
 20
148.68281377
  0
VERTEX
  8
0
 10
389.25033140
 20
149.32054217
  0
VERTEX
  8
0
 10
391.21970554
 20
150.00236270
  0
VERTEX
  8
0
 10
393.17336179
 20
150.72795987
  0
VERTEX
  8
0
 10
395.11030204
 20
151.49701820
  0
VERTEX
  8
0
 10
397.02952823
 20
152.30922218
  0
VERTEX
  8
0
 10
398.93004227
 20
153.16425634
  0
VERTEX
  8
0
 10
400.81084607
 20
154.06180517
  0
VERTEX
  8
0
 10
402.67094155
 20
155.00155319
  0
VERTEX
  8
0
 10
404.50933063
 20
155.98318491
  0
VERTEX
  8
0
 10
406.17451313
 20
156.91927134
  0
VERTEX
  8
0
 10
407.82001044
 20
157.88948195
  0
VERTEX
  8
0
 10
409.44518679
 20
158.89332927
  0
VERTEX
  8
0
 10
411.04940642
 20
159.93032584
  0
VERTEX
  8
0
 10
412.63203360
 20
160.99998419
  0
VERTEX
  8
0
 10
414.19243256
 20
162.10181688
  0
VERTEX
  8
0
 10
415.72996755
 20
163.23533643
  0
VERTEX
  8
0
 10
417.24400283
 20
164.40005539
  0
VERTEX
  8
0
 10
418.73390263
 20
165.59548629
  0
VERTEX
  8
0
 10
420.19903121
 20
166.82114166
  0
VERTEX
  8
0
 10
421.63875281
 20
168.07653406
  0
VERTEX
  8
0
 10
423.05243168
 20
169.36117602
  0
VERTEX
  8
0
 10
424.43943207
 20
170.67458007
  0
VERTEX
  8
0
 10
425.79911823
 20
172.01625876
  0
VERTEX
  8
0
 10
427.13085440
 20
173.38572462
  0
VERTEX
  8
0
 10
428.43400483
 20
174.78249019
  0
VERTEX
  8
0
 10
429.67522768
 20
176.16845182
  0
VERTEX
  8
0
 10
430.88848634
 20
177.57894609
  0
VERTEX
  8
0
 10
432.07334099
 20
179.01337520
  0
VERTEX
  8
0
 10
433.22935180
 20
180.47114137
  0
VERTEX
  8
0
 10
434.35607897
 20
181.95164679
  0
VERTEX
  8
0
 10
435.45308267
 20
183.45429368
  0
VERTEX
  8
0
 10
436.51992307
 20
184.97848425
  0
VERTEX
  8
0
 10
437.55616037
 20
186.52362070
  0
VERTEX
  8
0
 10
438.56135473
 20
188.08910525
  0
VERTEX
  8
0
 10
439.53506634
 20
189.67434009
  0
VERTEX
  8
0
 10
440.47685538
 20
191.27872744
  0
VERTEX
  8
0
 10
441.38628203
 20
192.90166951
  0
VERTEX
  8
0
 10
442.26290647
 20
194.54256851
  0
VERTEX
  8
0
 10
443.10628887
 20
196.20082663
  0
VERTEX
  8
0
 10
443.91598943
 20
197.87584610
  0
VERTEX
  8
0
 10
444.69156831
 20
199.56702911
  0
VERTEX
  8
0
 10
445.36557758
 20
201.11452440
  0
VERTEX
  8
0
 10
446.01152063
 20
202.67393353
  0
VERTEX
  8
0
 10
446.62921759
 20
204.24473649
  0
VERTEX
  8
0
 10
447.21848857
 20
205.82641325
  0
VERTEX
  8
0
 10
447.77915369
 20
207.41844380
  0
VERTEX
  8
0
 10
448.31103306
 20
209.02030810
  0
VERTEX
  8
0
 10
448.81394681
 20
210.63148615
  0
VERTEX
  8
0
 10
449.28771505
 20
212.25145790
  0
VERTEX
  8
0
 10
449.73215789
 20
213.87970335
  0
VERTEX
  8
0
 10
450.14709545
 20
215.51570247
  0
VERTEX
  8
0
 10
450.53234786
 20
217.15893523
  0
VERTEX
  8
0
 10
450.88773522
 20
218.80888162
  0
VERTEX
  8
0
 10
451.21307766
 20
220.46502161
  0
VERTEX
  8
0
 10
451.50819529
 20
222.12683519
  0
VERTEX
  8
0
 10
451.77290823
 20
223.79380232
  0
VERTEX
  8
0
 10
452.00703660
 20
225.46540298
  0
VERTEX
  8
0
 10
461.41398680
 20
297.37017315
  0
VERTEX
  8
0
 10
470.82237073
 20
369.27534612
  0
VERTEX
  8
0
 10
480.22136940
 20
441.18165401
  0
VERTEX
  8
0
 10
484.93236839
 20
477.13196713
  0
VERTEX
  8
0
 10
491.20399361
 20
525.06843809
  0
VERTEX
  8
0
 10
491.78409812
 20
525.87048277
  0
VERTEX
  8
0
 10
492.37727775
 20
526.66271320
  0
VERTEX
  8
0
 10
492.98333004
 20
527.44498294
  0
VERTEX
  8
0
 10
493.60205249
 20
528.21714555
  0
VERTEX
  8
0
 10
494.23324264
 20
528.97905459
  0
VERTEX
  8
0
 10
494.87669801
 20
529.73056363
  0
VERTEX
  8
0
 10
495.53221611
 20
530.47152622
  0
VERTEX
  8
0
 10
496.19959447
 20
531.20179592
  0
VERTEX
  8
0
 10
496.87863061
 20
531.92122630
  0
VERTEX
  8
0
 10
497.56912206
 20
532.62967091
  0
VERTEX
  8
0
 10
498.27086633
 20
533.32698332
  0
VERTEX
  8
0
 10
498.98366095
 20
534.01301708
  0
VERTEX
  8
0
 10
499.70730343
 20
534.68762575
  0
VERTEX
  8
0
 10
500.44159131
 20
535.35066290
  0
VERTEX
  8
0
 10
501.18632210
 20
536.00198209
  0
VERTEX
  8
0
 10
501.94129332
 20
536.64143687
  0
VERTEX
  8
0
 10
502.70630250
 20
537.26888081
  0
VERTEX
  8
0
 10
503.48114716
 20
537.88416747
  0
VERTEX
  8
0
 10
504.26562482
 20
538.48715040
  0
VERTEX
  8
0
 10
505.05953300
 20
539.07768317
  0
VERTEX
  8
0
 10
505.86266922
 20
539.65561934
  0
VERTEX
  8
0
 10
506.67483101
 20
540.22081247
  0
VERTEX
  8
0
 10
507.49581588
 20
540.77311611
  0
VERTEX
  8
0
 10
508.32542137
 20
541.31238384
  0
VERTEX
  8
0
 10
509.16344499
 20
541.83846920
  0
VERTEX
  8
0
 10
510.00968426
 20
542.35122576
  0
VERTEX
  8
0
 10
510.86393670
 20
542.85050708
  0
VERTEX
  8
0
 10
511.72599984
 20
543.33616673
  0
VERTEX
  8
0
 10
512.59567121
 20
543.80805825
  0
VERTEX
  8
0
 10
513.47274831
 20
544.26603521
  0
VERTEX
  8
0
 10
514.35702867
 20
544.70995118
  0
VERTEX
  8
0
 10
515.24830982
 20
545.13965971
  0
VERTEX
  8
0
 10
516.28091478
 20
545.61544455
  0
VERTEX
  8
0
 10
517.32220897
 20
546.07162833
  0
VERTEX
  8
0
 10
518.37181419
 20
546.50815822
  0
VERTEX
  8
0
 10
519.42935222
 20
546.92498138
  0
VERTEX
  8
0
 10
520.49444487
 20
547.32204497
  0
VERTEX
  8
0
 10
521.56671392
 20
547.69929617
  0
VERTEX
  8
0
 10
522.64578117
 20
548.05668214
  0
VERTEX
  8
0
 10
523.73126840
 20
548.39415005
  0
VERTEX
  8
0
 10
524.82279741
 20
548.71164706
  0
VERTEX
  8
0
 10
525.91998999
 20
549.00912034
  0
VERTEX
  8
0
 10
527.02246792
 20
549.28651706
  0
VERTEX
  8
0
 10
528.12985301
 20
549.54378438
  0
VERTEX
  8
0
 10
529.24176705
 20
549.78086947
  0
VERTEX
  8
0
 10
530.35783182
 20
549.99771950
  0
VERTEX
  8
0
 10
531.47766911
 20
550.19428163
  0
VERTEX
  8
0
 10
532.60090073
 20
550.37050303
  0
VERTEX
  8
0
 10
533.72714845
 20
550.52633086
  0
VERTEX
  8
0
 10
534.85603408
 20
550.66171229
  0
VERTEX
  8
0
 10
535.98717940
 20
550.77659449
  0
VERTEX
  8
0
 10
537.12020621
 20
550.87092463
  0
VERTEX
  8
0
 10
538.25473629
 20
550.94464987
  0
VERTEX
  8
0
 10
539.39039144
 20
550.99771737
  0
VERTEX
  8
0
 10
540.52679345
 20
551.03007431
  0
VERTEX
  8
0
 10
541.66356412
 20
551.04166784
  0
VERTEX
  8
0
 10
542.80032522
 20
551.03244515
  0
VERTEX
  8
0
 10
543.93669857
 20
551.00235339
  0
VERTEX
  8
0
 10
545.07230593
 20
550.95133972
  0
VERTEX
  8
0
 10
546.20676912
 20
550.87935133
  0
VERTEX
  8
0
 10
547.33970992
 20
550.78633536
  0
VERTEX
  8
0
 10
548.47075012
 20
550.67223899
  0
VERTEX
  8
0
 10
549.59951151
 20
550.53700939
  0
VERTEX
  8
0
 10
550.72561588
 20
550.38059372
  0
VERTEX
  8
0
 10
552.61688531
 20
550.06946335
  0
VERTEX
  8
0
 10
554.49748941
 20
549.69968005
  0
VERTEX
  8
0
 10
556.36573296
 20
549.27189103
  0
VERTEX
  8
0
 10
558.21992074
 20
548.78674350
  0
VERTEX
  8
0
 10
560.05835753
 20
548.24488466
  0
VERTEX
  8
0
 10
561.87934811
 20
547.64696172
  0
VERTEX
  8
0
 10
563.68119726
 20
546.99362190
  0
VERTEX
  8
0
 10
565.46220976
 20
546.28551239
  0
VERTEX
  8
0
 10
567.22069038
 20
545.52328042
  0
VERTEX
  8
0
 10
568.95494390
 20
544.70757319
  0
VERTEX
  8
0
 10
570.66327511
 20
543.83903790
  0
VERTEX
  8
0
 10
572.34398879
 20
542.91832177
  0
VERTEX
  8
0
 10
573.99538970
 20
541.94607200
  0
VERTEX
  8
0
 10
575.61578264
 20
540.92293580
  0
VERTEX
  8
0
 10
576.41382136
 20
540.39248755
  0
VERTEX
  8
0
 10
577.20347237
 20
539.84956039
  0
VERTEX
  8
0
 10
577.98452378
 20
539.29423523
  0
VERTEX
  8
0
 10
578.75676369
 20
538.72659296
  0
VERTEX
  8
0
 10
579.48788379
 20
538.17162855
 42
-0.53724555
  0
VERTEX
  8
0
 10
579.00834085
 20
531.51830731
 42
0.86490825
  0
VERTEX
  8
0
 10
595.79340959
 20
488.01348604
  0
VERTEX
  8
0
 10
586.11421568
 20
410.38827605
  0
VERTEX
  8
0
 10
577.48925578
 20
341.21476309
  0
VERTEX
  8
0
 10
577.72475214
 20
339.10942213
  0
VERTEX
  8
0
 10
577.98392187
 20
337.00775641
  0
VERTEX
  8
0
 10
578.26685762
 20
334.91005531
  0
VERTEX
  8
0
 10
578.57365203
 20
332.81660822
  0
VERTEX
  8
0
 10
578.90439777
 20
330.72770451
  0
VERTEX
  8
0
 10
579.25918748
 20
328.64363356
  0
VERTEX
  8
0
 10
579.63811383
 20
326.56468476
  0
VERTEX
  8
0
 10
580.04126945
 20
324.49114748
  0
VERTEX
  8
0
 10
580.46874701
 20
322.42331110
  0
VERTEX
  8
0
 10
580.92063915
 20
320.36146501
  0
VERTEX
  8
0
 10
581.39703853
 20
318.30589858
  0
VERTEX
  8
0
 10
581.89803781
 20
316.25690119
  0
VERTEX
  8
0
 10
582.42372963
 20
314.21476223
  0
VERTEX
  8
0
 10
582.97420665
 20
312.17977107
  0
VERTEX
  8
0
 10
583.54956153
 20
310.15221709
  0
VERTEX
  8
0
 10
584.14988690
 20
308.13238968
  0
VERTEX
  8
0
 10
584.77527544
 20
306.12057821
  0
VERTEX
  8
0
 10
585.42581978
 20
304.11707207
  0
VERTEX
  8
0
 10
586.10161259
 20
302.12216063
  0
VERTEX
  8
0
 10
586.80274651
 20
300.13613327
  0
VERTEX
  8
0
 10
587.52931420
 20
298.15927938
  0
VERTEX
  8
0
 10
588.28140832
 20
296.19188834
  0
VERTEX
  8
0
 10
589.05912151
 20
294.23424951
  0
VERTEX
  8
0
 10
589.86254642
 20
292.28665229
  0
VERTEX
  8
0
 10
590.69177572
 20
290.34938606
  0
VERTEX
  8
0
 10
591.54690205
 20
288.42274019
  0
VERTEX
  8
0
 10
592.42801807
 20
286.50700407
  0
VERTEX
  8
0
 10
593.33521643
 20
284.60246707
  0
VERTEX
  8
0
 10
594.26858977
 20
282.70941857
  0
VERTEX
  8
0
 10
595.22823077
 20
280.82814796
  0
VERTEX
  8
0
 10
596.21423206
 20
278.95894461
  0
VERTEX
  8
0
 10
597.22668630
 20
277.10209791
  0
VERTEX
  8
0
 10
598.92702178
 20
274.08691076
  0
VERTEX
  8
0
 10
600.66950094
 20
271.09906625
  0
VERTEX
  8
0
 10
602.45302869
 20
268.13801652
  0
VERTEX
  8
0
 10
604.27650994
 20
265.20321370
  0
VERTEX
  8
0
 10
606.13884959
 20
262.29410992
  0
VERTEX
  8
0
 10
608.03895254
 20
259.41015732
  0
VERTEX
  8
0
 10
609.97572371
 20
256.55080802
  0
VERTEX
  8
0
 10
611.94806798
 20
253.71551417
  0
VERTEX
  8
0
 10
613.95489027
 20
250.90372788
  0
VERTEX
  8
0
 10
615.99509549
 20
248.11490130
  0
VERTEX
  8
0
 10
618.06758853
 20
245.34848655
  0
VERTEX
  8
0
 10
620.17127430
 20
242.60393577
  0
VERTEX
  8
0
 10
622.30505771
 20
239.88070108
  0
VERTEX
  8
0
 10
624.46784365
 20
237.17823462
  0
VERTEX
  8
0
 10
626.65853704
 20
234.49598853
  0
VERTEX
  8
0
 10
628.87604278
 20
231.83341493
  0
VERTEX
  8
0
 10
631.11926577
 20
229.18996595
  0
VERTEX
  8
0
 10
633.38711092
 20
226.56509373
  0
VERTEX
  8
0
 10
635.67848313
 20
223.95825040
  0
VERTEX
  8
0
 10
637.99228731
 20
221.36888810
  0
VERTEX
  8
0
 10
640.32742835
 20
218.79645894
  0
VERTEX
  8
0
 10
642.68281118
 20
216.24041507
  0
VERTEX
  8
0
 10
645.05734068
 20
213.70020861
  0
VERTEX
  8
0
 10
647.44992176
 20
211.17529170
  0
VERTEX
  8
0
 10
649.85945933
 20
208.66511648
  0
VERTEX
  8
0
 10
652.28485830
 20
206.16913506
  0
VERTEX
  8
0
 10
654.72502356
 20
203.68679959
  0
VERTEX
  8
0
 10
657.17886003
 20
201.21756219
  0
VERTEX
  8
0
 10
659.64527260
 20
198.76087500
  0
VERTEX
  8
0
 10
662.12316617
 20
196.31619015
  0
VERTEX
  8
0
 10
667.10901598
 20
191.46063600
  0
VERTEX
  8
0
 10
669.40292969
 20
189.27043490
  0
VERTEX
  8
0
 10
671.72221518
 20
187.10816695
  0
VERTEX
  8
0
 10
674.06691760
 20
184.97456757
  0
VERTEX
  8
0
 10
676.43708207
 20
182.87037219
  0
VERTEX
  8
0
 10
678.83275373
 20
180.79631623
  0
VERTEX
  8
0
 10
681.25397770
 20
178.75313512
  0
VERTEX
  8
0
 10
683.70079912
 20
176.74156427
  0
VERTEX
  8
0
 10
686.17326313
 20
174.76233912
  0
VERTEX
  8
0
 10
688.67141485
 20
172.81619509
  0
VERTEX
  8
0
 10
691.19529941
 20
170.90386761
  0
VERTEX
  8
0
 10
693.74496195
 20
169.02609209
  0
VERTEX
  8
0
 10
696.32044761
 20
167.18360397
  0
VERTEX
  8
0
 10
698.92180150
 20
165.37713866
  0
VERTEX
  8
0
 10
701.54906877
 20
163.60743160
  0
VERTEX
  8
0
 10
704.20229454
 20
161.87521821
  0
VERTEX
  8
0
 10
706.88152395
 20
160.18123390
  0
VERTEX
  8
0
 10
833.85081799
 20
82.12992280
 42
-0.29882803
  0
VERTEX
  8
0
 10
843.17597688
 20
62.26315064
  0
VERTEX
  8
0
 10
843.12125249
 20
61.80345152
  0
VERTEX
  8
0
 10
843.04473975
 20
61.35157320
  0
VERTEX
  8
0
 10
842.94701381
 20
60.90801299
  0
VERTEX
  8
0
 10
842.82864982
 20
60.47326822
  0
VERTEX
  8
0
 10
842.69022292
 20
60.04783620
  0
VERTEX
  8
0
 10
842.53230828
 20
59.63221426
  0
VERTEX
  8
0
 10
842.35548104
 20
59.22689972
  0
VERTEX
  8
0
 10
842.16031636
 20
58.83238989
  0
VERTEX
  8
0
 10
841.94738938
 20
58.44918210
  0
VERTEX
  8
0
 10
841.71727527
 20
58.07777367
  0
VERTEX
  8
0
 10
841.47054917
 20
57.71866192
  0
VERTEX
  8
0
 10
841.20778624
 20
57.37234416
  0
VERTEX
  8
0
 10
840.92956163
 20
57.03931772
  0
VERTEX
  8
0
 10
840.63645048
 20
56.72007992
  0
VERTEX
  8
0
 10
840.32902796
 20
56.41512808
  0
VERTEX
  8
0
 10
840.00786922
 20
56.12495951
  0
VERTEX
  8
0
 10
839.67354940
 20
55.85007155
  0
VERTEX
  8
0
 10
839.32664366
 20
55.59096150
  0
VERTEX
  8
0
 10
838.96772715
 20
55.34812669
  0
VERTEX
  8
0
 10
838.59737503
 20
55.12206444
  0
VERTEX
  8
0
 10
838.21616244
 20
54.91327207
  0
VERTEX
  8
0
 10
837.82466454
 20
54.72224690
  0
VERTEX
  8
0
 10
837.42345648
 20
54.54948625
  0
VERTEX
  8
0
 10
837.01311342
 20
54.39548744
  0
VERTEX
  8
0
 10
836.59421050
 20
54.26074780
  0
VERTEX
  8
0
 10
836.16732287
 20
54.14576463
  0
VERTEX
  8
0
 10
835.73302570
 20
54.05103526
  0
VERTEX
  8
0
 10
835.29189413
 20
53.97705701
  0
VERTEX
  8
0
 10
834.84450331
 20
53.92432721
  0
VERTEX
  8
0
 10
834.39142840
 20
53.89334316
  0
VERTEX
  8
0
 10
833.93324455
 20
53.88460220
  0
VERTEX
  8
0
 10
833.47052691
 20
53.89860164
  0
VERTEX
  8
0
 10
825.89444410
 20
58.35447302
  0
VERTEX
  8
0
 10
825.25784320
 20
58.44502507
  0
VERTEX
  8
0
 10
824.62423338
 20
58.50271375
  0
VERTEX
  8
0
 10
823.99451604
 20
58.52817867
  0
VERTEX
  8
0
 10
823.36959253
 20
58.52205945
  0
VERTEX
  8
0
 10
822.75036423
 20
58.48499569
  0
VERTEX
  8
0
 10
822.13773252
 20
58.41762701
  0
VERTEX
  8
0
 10
821.53259878
 20
58.32059301
  0
VERTEX
  8
0
 10
820.93586437
 20
58.19453331
  0
VERTEX
  8
0
 10
820.34843066
 20
58.04008750
  0
VERTEX
  8
0
 10
819.77119904
 20
57.85789521
  0
VERTEX
  8
0
 10
819.20507088
 20
57.64859604
  0
VERTEX
  8
0
 10
818.65094755
 20
57.41282961
  0
VERTEX
  8
0
 10
818.10973043
 20
57.15123551
  0
VERTEX
  8
0
 10
817.58232088
 20
56.86445337
  0
VERTEX
  8
0
 10
817.06962029
 20
56.55312279
  0
VERTEX
  8
0
 10
816.57253002
 20
56.21788338
  0
VERTEX
  8
0
 10
816.09195146
 20
55.85937474
  0
VERTEX
  8
0
 10
815.62878597
 20
55.47823650
  0
VERTEX
  8
0
 10
815.18393493
 20
55.07510826
  0
VERTEX
  8
0
 10
814.75829971
 20
54.65062963
  0
VERTEX
  8
0
 10
814.35278169
 20
54.20544022
  0
VERTEX
  8
0
 10
813.96828224
 20
53.74017963
  0
VERTEX
  8
0
 10
813.60570274
 20
53.25548749
  0
VERTEX
  8
0
 10
813.26594456
 20
52.75200339
  0
VERTEX
  8
0
 10
812.94990907
 20
52.23036695
  0
VERTEX
  8
0
 10
812.65849764
 20
51.69121777
  0
VERTEX
  8
0
 10
812.39261166
 20
51.13519548
  0
VERTEX
  8
0
 10
812.15315249
 20
50.56293967
  0
VERTEX
  8
0
 10
811.94102151
 20
49.97508996
  0
VERTEX
  8
0
 10
811.75712010
 20
49.37228595
  0
VERTEX
  8
0
 10
811.60234962
 20
48.75516726
  0
VERTEX
  8
0
 10
811.47761145
 20
48.12437350
  0
VERTEX
  8
0
 10
811.40288081
 20
47.63173272
  0
VERTEX
  8
0
 10
811.34785659
 20
47.14068524
  0
VERTEX
  8
0
 10
811.31224586
 20
46.65164694
  0
VERTEX
  8
0
 10
811.29575570
 20
46.16503369
  0
VERTEX
  8
0
 10
811.29809316
 20
45.68126139
  0
VERTEX
  8
0
 10
811.31896531
 20
45.20074591
  0
VERTEX
  8
0
 10
811.35807922
 20
44.72390314
  0
VERTEX
  8
0
 10
811.41514197
 20
44.25114897
  0
VERTEX
  8
0
 10
811.48986060
 20
43.78289928
  0
VERTEX
  8
0
 10
811.58194221
 20
43.31956995
  0
VERTEX
  8
0
 10
811.69109384
 20
42.86157687
  0
VERTEX
  8
0
 10
811.81702257
 20
42.40933592
  0
VERTEX
  8
0
 10
811.95943547
 20
41.96326299
  0
VERTEX
  8
0
 10
812.11803960
 20
41.52377395
  0
VERTEX
  8
0
 10
812.29254203
 20
41.09128470
  0
VERTEX
  8
0
 10
812.48264983
 20
40.66621111
  0
SEQEND
  0
POLYLINE
  8
METAL_FRAME
 62
256
 66
   1
 39
0.000000
 70
    1
  0
VERTEX
  8
0
 10
537.23439900
 20
200.32458301
 42
-0.41421356
  0
VERTEX
  8
0
 10
565.07245125
 20
177.39986170
 42
-0.41421356
  0
VERTEX
  8
0
 10
542.14772993
 20
149.56180945
  0
VERTEX
  8
0
 10
511.87538709
 20
146.63174815
 42
-0.41421356
  0
VERTEX
  8
0
 10
484.03733485
 20
169.55646947
 42
-0.41421356
  0
VERTEX
  8
0
 10
506.96205617
 20
197.39452171
  0
VERTEX
  8
0
 10
537.23439900
 20
200.32458301
  0
SEQEND
  0
POLYLINE
  8
METAL_FRAME
 62
256
 66
   1
 39
0.000000
 70
    1
  0
VERTEX
  8
0
 10
1665.95705928
 20
40.66621111
  0
VERTEX
  8
0
 10
1664.99848007
 20
30.62610899
  0
VERTEX
  8
0
 10
1255.15537798
 20
33.30291893
  0
VERTEX
  8
0
 10
910.17105509
 20
30.01400341
 42
-0.68627863
  0
VERTEX
  8
0
 10
904.44060263
 20
99.09345293
  0
VERTEX
  8
0
 10
1226.52367320
 20
145.47979586
  0
VERTEX
  8
0
 10
1228.58285957
 20
145.80004560
  0
VERTEX
  8
0
 10
1230.63431269
 20
146.16659591
  0
VERTEX
  8
0
 10
1232.67703450
 20
146.57913129
  0
VERTEX
  8
0
 10
1234.71002691
 20
147.03733626
  0
VERTEX
  8
0
 10
1236.73229183
 20
147.54089532
  0
VERTEX
  8
0
 10
1238.74283118
 20
148.08949299
  0
VERTEX
  8
0
 10
1240.74064688
 20
148.68281377
  0
VERTEX
  8
0
 10
1242.72474085
 20
149.32054217
  0
VERTEX
  8
0
 10
1244.69411499
 20
150.00236270
  0
VERTEX
  8
0
 10
1246.64777124
 20
150.72795987
  0
VERTEX
  8
0
 10
1248.58471149
 20
151.49701820
  0
VERTEX
  8
0
 10
1250.50393768
 20
152.30922218
  0
VERTEX
  8
0
 10
1252.40445172
 20
153.16425634
  0
VERTEX
  8
0
 10
1254.28525552
 20
154.06180517
  0
VERTEX
  8
0
 10
1256.14535100
 20
155.00155319
  0
VERTEX
  8
0
 10
1257.98374008
 20
155.98318491
  0
VERTEX
  8
0
 10
1259.64892258
 20
156.91927134
  0
VERTEX
  8
0
 10
1261.29441989
 20
157.88948195
  0
VERTEX
  8
0
 10
1262.91959624
 20
158.89332927
  0
VERTEX
  8
0
 10
1264.52381587
 20
159.93032584
  0
VERTEX
  8
0
 10
1266.10644305
 20
160.99998419
  0
VERTEX
  8
0
 10
1267.66684201
 20
162.10181688
  0
VERTEX
  8
0
 10
1269.20437700
 20
163.23533643
  0
VERTEX
  8
0
 10
1270.71841228
 20
164.40005539
  0
VERTEX
  8
0
 10
1272.20831208
 20
165.59548629
  0
VERTEX
  8
0
 10
1273.67344066
 20
166.82114166
  0
VERTEX
  8
0
 10
1275.11316226
 20
168.07653406
  0
VERTEX
  8
0
 10
1276.52684113
 20
169.36117602
  0
VERTEX
  8
0
 10
1277.91384152
 20
170.67458007
  0
VERTEX
  8
0
 10
1279.27352768
 20
172.01625876
  0
VERTEX
  8
0
 10
1280.60526385
 20
173.38572462
  0
VERTEX
  8
0
 10
1281.90841428
 20
174.78249019
  0
VERTEX
  8
0
 10
1283.14963713
 20
176.16845182
  0
VERTEX
  8
0
 10
1284.36289579
 20
177.57894609
  0
VERTEX
  8
0
 10
1285.54775044
 20
179.01337520
  0
VERTEX
  8
0
 10
1286.70376125
 20
180.47114137
  0
VERTEX
  8
0
 10
1287.83048842
 20
181.95164679
  0
VERTEX
  8
0
 10
1288.92749212
 20
183.45429368
  0
VERTEX
  8
0
 10
1289.99433252
 20
184.97848425
  0
VERTEX
  8
0
 10
1291.03056982
 20
186.52362070
  0
VERTEX
  8
0
 10
1292.03576418
 20
188.08910525
  0
VERTEX
  8
0
 10
1293.00947579
 20
189.67434009
  0
VERTEX
  8
0
 10
1293.95126483
 20
191.27872744
  0
VERTEX
  8
0
 10
1294.86069148
 20
192.90166951
  0
VERTEX
  8
0
 10
1295.73731592
 20
194.54256851
  0
VERTEX
  8
0
 10
1296.58069832
 20
196.20082663
  0
VERTEX
  8
0
 10
1297.39039888
 20
197.87584610
  0
VERTEX
  8
0
 10
1298.16597776
 20
199.56702911
  0
VERTEX
  8
0
 10
1298.83998703
 20
201.11452440
  0
VERTEX
  8
0
 10
1299.48593008
 20
202.67393353
  0
VERTEX
  8
0
 10
1300.10362704
 20
204.24473649
  0
VERTEX
  8
0
 10
1300.69289802
 20
205.82641325
  0
VERTEX
  8
0
 10
1301.25356314
 20
207.41844380
  0
VERTEX
  8
0
 10
1301.78544251
 20
209.02030810
  0
VERTEX
  8
0
 10
1302.28835626
 20
210.63148615
  0
VERTEX
  8
0
 10
1302.76212450
 20
212.25145790
  0
VERTEX
  8
0
 10
1303.20656734
 20
213.87970335
  0
VERTEX
  8
0
 10
1303.62150490
 20
215.51570247
  0
VERTEX
  8
0
 10
1304.00675731
 20
217.15893523
  0
VERTEX
  8
0
 10
1304.36214467
 20
218.80888162
  0
VERTEX
  8
0
 10
1304.68748711
 20
220.46502161
  0
VERTEX
  8
0
 10
1304.98260474
 20
222.12683519
  0
VERTEX
  8
0
 10
1305.24731768
 20
223.79380232
  0
VERTEX
  8
0
 10
1305.48144605
 20
225.46540298
  0
VERTEX
  8
0
 10
1314.88839625
 20
297.37017315
  0
VERTEX
  8
0
 10
1324.29678018
 20
369.27534612
  0
VERTEX
  8
0
 10
1333.69577885
 20
441.18165401
  0
VERTEX
  8
0
 10
1338.40677784
 20
477.13196713
  0
VERTEX
  8
0
 10
1344.67840306
 20
525.06843809
  0
VERTEX
  8
0
 10
1345.25850757
 20
525.87048277
  0
VERTEX
  8
0
 10
1345.85168720
 20
526.66271320
  0
VERTEX
  8
0
 10
1346.45773949
 20
527.44498294
  0
VERTEX
  8
0
 10
1347.07646194
 20
528.21714555
  0
VERTEX
  8
0
 10
1347.70765209
 20
528.97905459
  0
VERTEX
  8
0
 10
1348.35110746
 20
529.73056363
  0
VERTEX
  8
0
 10
1349.00662556
 20
530.47152622
  0
VERTEX
  8
0
 10
1349.67400392
 20
531.20179592
  0
VERTEX
  8
0
 10
1350.35304006
 20
531.92122630
  0
VERTEX
  8
0
 10
1351.04353151
 20
532.62967091
  0
VERTEX
  8
0
 10
1351.74527578
 20
533.32698332
  0
VERTEX
  8
0
 10
1352.45807040
 20
534.01301708
  0
VERTEX
  8
0
 10
1353.18171288
 20
534.68762575
  0
VERTEX
  8
0
 10
1353.91600076
 20
535.35066290
  0
VERTEX
  8
0
 10
1354.66073155
 20
536.00198209
  0
VERTEX
  8
0
 10
1355.41570277
 20
536.64143687
  0
VERTEX
  8
0
 10
1356.18071195
 20
537.26888081
  0
VERTEX
  8
0
 10
1356.95555661
 20
537.88416747
  0
VERTEX
  8
0
 10
1357.74003427
 20
538.48715040
  0
VERTEX
  8
0
 10
1358.53394245
 20
539.07768317
  0
VERTEX
  8
0
 10
1359.33707867
 20
539.65561934
  0
VERTEX
  8
0
 10
1360.14924046
 20
540.22081247
  0
VERTEX
  8
0
 10
1360.97022533
 20
540.77311611
  0
VERTEX
  8
0
 10
1361.79983082
 20
541.31238384
  0
VERTEX
  8
0
 10
1362.63785444
 20
541.83846920
  0
VERTEX
  8
0
 10
1363.48409371
 20
542.35122576
  0
VERTEX
  8
0
 10
1364.33834615
 20
542.85050708
  0
VERTEX
  8
0
 10
1365.20040929
 20
543.33616673
  0
VERTEX
  8
0
 10
1366.07008066
 20
543.80805825
  0
VERTEX
  8
0
 10
1366.94715776
 20
544.26603521
  0
VERTEX
  8
0
 10
1367.83143812
 20
544.70995118
  0
VERTEX
  8
0
 10
1368.72271927
 20
545.13965971
  0
VERTEX
  8
0
 10
1369.75532423
 20
545.61544455
  0
VERTEX
  8
0
 10
1370.79661842
 20
546.07162833
  0
VERTEX
  8
0
 10
1371.84622364
 20
546.50815822
  0
VERTEX
  8
0
 10
1372.90376167
 20
546.92498138
  0
VERTEX
  8
0
 10
1373.96885432
 20
547.32204497
  0
VERTEX
  8
0
 10
1375.04112337
 20
547.69929617
  0
VERTEX
  8
0
 10
1376.12019062
 20
548.05668214
  0
VERTEX
  8
0
 10
1377.20567785
 20
548.39415005
  0
VERTEX
  8
0
 10
1378.29720686
 20
548.71164706
  0
VERTEX
  8
0
 10
1379.39439944
 20
549.00912034
  0
VERTEX
  8
0
 10
1380.49687737
 20
549.28651706
  0
VERTEX
  8
0
 10
1381.60426246
 20
549.54378438
  0
VERTEX
  8
0
 10
1382.71617650
 20
549.78086947
  0
VERTEX
  8
0
 10
1383.83224127
 20
549.99771950
  0
VERTEX
  8
0
 10
1384.95207856
 20
550.19428163
  0
VERTEX
  8
0
 10
1386.07531018
 20
550.37050303
  0
VERTEX
  8
0
 10
1387.20155790
 20
550.52633086
  0
VERTEX
  8
0
 10
1388.33044353
 20
550.66171229
  0
VERTEX
  8
0
 10
1389.46158885
 20
550.77659449
  0
VERTEX
  8
0
 10
1390.59461566
 20
550.87092463
  0
VERTEX
  8
0
 10
1391.72914574
 20
550.94464987
  0
VERTEX
  8
0
 10
1392.86480089
 20
550.99771737
  0
VERTEX
  8
0
 10
1394.00120290
 20
551.03007431
  0
VERTEX
  8
0
 10
1395.13797357
 20
551.04166784
  0
VERTEX
  8
0
 10
1396.27473467
 20
551.03244515
  0
VERTEX
  8
0
 10
1397.41110802
 20
551.00235339
  0
VERTEX
  8
0
 10
1398.54671538
 20
550.95133972
  0
VERTEX
  8
0
 10
1399.68117857
 20
550.87935133
  0
VERTEX
  8
0
 10
1400.81411937
 20
550.78633536
  0
VERTEX
  8
0
 10
1401.94515957
 20
550.67223899
  0
VERTEX
  8
0
 10
1403.07392096
 20
550.53700939
  0
VERTEX
  8
0
 10
1404.20002533
 20
550.38059372
  0
VERTEX
  8
0
 10
1406.09129476
 20
550.06946335
  0
VERTEX
  8
0
 10
1407.97189886
 20
549.69968005
  0
VERTEX
  8
0
 10
1409.84014241
 20
549.27189103
  0
VERTEX
  8
0
 10
1411.69433019
 20
548.78674350
  0
VERTEX
  8
0
 10
1413.53276698
 20
548.24488466
  0
VERTEX
  8
0
 10
1415.35375756
 20
547.64696172
  0
VERTEX
  8
0
 10
1417.15560671
 20
546.99362190
  0
VERTEX
  8
0
 10
1418.93661921
 20
546.28551239
  0
VERTEX
  8
0
 10
1420.69509983
 20
545.52328042
  0
VERTEX
  8
0
 10
1422.42935335
 20
544.70757319
  0
VERTEX
  8
0
 10
1424.13768456
 20
543.83903790
  0
VERTEX
  8
0
 10
1425.81839824
 20
542.91832177
  0
VERTEX
  8
0
 10
1427.46979915
 20
541.94607200
  0
VERTEX
  8
0
 10
1429.09019209
 20
540.92293580
  0
VERTEX
  8
0
 10
1429.88823081
 20
540.39248755
  0
VERTEX
  8
0
 10
1430.67788182
 20
539.84956039
  0
VERTEX
  8
0
 10
1431.45893323
 20
539.29423523
  0
VERTEX
  8
0
 10
1432.23117314
 20
538.72659296
  0
VERTEX
  8
0
 10
1432.96229324
 20
538.17162855
 42
-0.53724555
  0
VERTEX
  8
0
 10
1432.48275030
 20
531.51830731
 42
0.86490825
  0
VERTEX
  8
0
 10
1449.26781904
 20
488.01348604
  0
VERTEX
  8
0
 10
1439.58862513
 20
410.38827605
  0
VERTEX
  8
0
 10
1430.96366523
 20
341.21476309
  0
VERTEX
  8
0
 10
1431.19916159
 20
339.10942213
  0
VERTEX
  8
0
 10
1431.45833132
 20
337.00775641
  0
VERTEX
  8
0
 10
1431.74126707
 20
334.91005531
  0
VERTEX
  8
0
 10
1432.04806148
 20
332.81660822
  0
VERTEX
  8
0
 10
1432.37880722
 20
330.72770451
  0
VERTEX
  8
0
 10
1432.73359693
 20
328.64363356
  0
VERTEX
  8
0
 10
1433.11252328
 20
326.56468476
  0
VERTEX
  8
0
 10
1433.51567890
 20
324.49114748
  0
VERTEX
  8
0
 10
1433.94315646
 20
322.42331110
  0
VERTEX
  8
0
 10
1434.39504860
 20
320.36146501
  0
VERTEX
  8
0
 10
1434.87144798
 20
318.30589858
  0
VERTEX
  8
0
 10
1435.37244726
 20
316.25690119
  0
VERTEX
  8
0
 10
1435.89813908
 20
314.21476223
  0
VERTEX
  8
0
 10
1436.44861610
 20
312.17977107
  0
VERTEX
  8
0
 10
1437.02397098
 20
310.15221709
  0
VERTEX
  8
0
 10
1437.62429635
 20
308.13238968
  0
VERTEX
  8
0
 10
1438.24968489
 20
306.12057821
  0
VERTEX
  8
0
 10
1438.90022923
 20
304.11707207
  0
VERTEX
  8
0
 10
1439.57602204
 20
302.12216063
  0
VERTEX
  8
0
 10
1440.27715596
 20
300.13613327
  0
VERTEX
  8
0
 10
1441.00372365
 20
298.15927938
  0
VERTEX
  8
0
 10
1441.75581777
 20
296.19188834
  0
VERTEX
  8
0
 10
1442.53353096
 20
294.23424951
  0
VERTEX
  8
0
 10
1443.33695587
 20
292.28665229
  0
VERTEX
  8
0
 10
1444.16618517
 20
290.34938606
  0
VERTEX
  8
0
 10
1445.02131150
 20
288.42274019
  0
VERTEX
  8
0
 10
1445.90242752
 20
286.50700407
  0
VERTEX
  8
0
 10
1446.80962588
 20
284.60246707
  0
VERTEX
  8
0
 10
1447.74299922
 20
282.70941857
  0
VERTEX
  8
0
 10
1448.70264022
 20
280.82814796
  0
VERTEX
  8
0
 10
1449.68864151
 20
278.95894461
  0
VERTEX
  8
0
 10
1450.70109575
 20
277.10209791
  0
VERTEX
  8
0
 10
1452.40143123
 20
274.08691076
  0
VERTEX
  8
0
 10
1454.14391039
 20
271.09906625
  0
VERTEX
  8
0
 10
1455.92743814
 20
268.13801652
  0
VERTEX
  8
0
 10
1457.75091939
 20
265.20321370
  0
VERTEX
  8
0
 10
1459.61325904
 20
262.29410992
  0
VERTEX
  8
0
 10
1461.51336199
 20
259.41015732
  0
VERTEX
  8
0
 10
1463.45013316
 20
256.55080802
  0
VERTEX
  8
0
 10
1465.42247743
 20
253.71551417
  0
VERTEX
  8
0
 10
1467.42929972
 20
250.90372788
  0
VERTEX
  8
0
 10
1469.46950494
 20
248.11490130
  0
VERTEX
  8
0
 10
1471.54199798
 20
245.34848655
  0
VERTEX
  8
0
 10
1473.64568375
 20
242.60393577
  0
VERTEX
  8
0
 10
1475.77946716
 20
239.88070108
  0
VERTEX
  8
0
 10
1477.94225310
 20
237.17823462
  0
VERTEX
  8
0
 10
1480.13294649
 20
234.49598853
  0
VERTEX
  8
0
 10
1482.35045223
 20
231.83341493
  0
VERTEX
  8
0
 10
1484.59367522
 20
229.18996595
  0
VERTEX
  8
0
 10
1486.86152037
 20
226.56509373
  0
VERTEX
  8
0
 10
1489.15289258
 20
223.95825040
  0
VERTEX
  8
0
 10
1491.46669676
 20
221.36888810
  0
VERTEX
  8
0
 10
1493.80183780
 20
218.79645894
  0
VERTEX
  8
0
 10
1496.15722063
 20
216.24041507
  0
VERTEX
  8
0
 10
1498.53175013
 20
213.70020861
  0
VERTEX
  8
0
 10
1500.92433121
 20
211.17529170
  0
VERTEX
  8
0
 10
1503.33386878
 20
208.66511648
  0
VERTEX
  8
0
 10
1505.75926775
 20
206.16913506
  0
VERTEX
  8
0
 10
1508.19943301
 20
203.68679959
  0
VERTEX
  8
0
 10
1510.65326948
 20
201.21756219
  0
VERTEX
  8
0
 10
1513.11968205
 20
198.76087500
  0
VERTEX
  8
0
 10
1515.59757562
 20
196.31619015
  0
VERTEX
  8
0
 10
1520.58342543
 20
191.46063600
  0
VERTEX
  8
0
 10
1522.87733914
 20
189.27043490
  0
VERTEX
  8
0
 10
1525.19662463
 20
187.10816695
  0
VERTEX
  8
0
 10
1527.54132705
 20
184.97456757
  0
VERTEX
  8
0
 10
1529.91149152
 20
182.87037219
  0
VERTEX
  8
0
 10
1532.30716318
 20
180.79631623
  0
VERTEX
  8
0
 10
1534.72838715
 20
178.75313512
  0
VERTEX
  8
0
 10
1537.17520857
 20
176.74156427
  0
VERTEX
  8
0
 10
1539.64767258
 20
174.76233912
  0
VERTEX
  8
0
 10
1542.14582430
 20
172.81619509
  0
VERTEX
  8
0
 10
1544.66970886
 20
170.90386761
  0
VERTEX
  8
0
 10
1547.21937140
 20
169.02609209
  0
VERTEX
  8
0
 10
1549.79485706
 20
167.18360397
  0
VERTEX
  8
0
 10
1552.39621095
 20
165.37713866
  0
VERTEX
  8
0
 10
1555.02347822
 20
163.60743160
  0
VERTEX
  8
0
 10
1557.67670399
 20
161.87521821
  0
VERTEX
  8
0
 10
1560.35593340
 20
160.18123390
  0
VERTEX
  8
0
 10
1687.32522744
 20
82.12992280
 42
-0.29882803
  0
VERTEX
  8
0
 10
1696.65038633
 20
62.26315064
  0
VERTEX
  8
0
 10
1696.59566194
 20
61.80345152
  0
VERTEX
  8
0
 10
1696.51914920
 20
61.35157320
  0
VERTEX
  8
0
 10
1696.42142326
 20
60.90801299
  0
VERTEX
  8
0
 10
1696.30305927
 20
60.47326822
  0
VERTEX
  8
0
 10
1696.16463237
 20
60.04783620
  0
VERTEX
  8
0
 10
1696.00671773
 20
59.63221426
  0
VERTEX
  8
0
 10
1695.82989049
 20
59.22689972
  0
VERTEX
  8
0
 10
1695.63472581
 20
58.83238989
  0
VERTEX
  8
0
 10
1695.42179883
 20
58.44918210
  0
VERTEX
  8
0
 10
1695.19168472
 20
58.07777367
  0
VERTEX
  8
0
 10
1694.94495862
 20
57.71866192
  0
VERTEX
  8
0
 10
1694.68219569
 20
57.37234416
  0
VERTEX
  8
0
 10
1694.40397108
 20
57.03931772
  0
VERTEX
  8
0
 10
1694.11085993
 20
56.72007992
  0
VERTEX
  8
0
 10
1693.80343741
 20
56.41512808
  0
VERTEX
  8
0
 10
1693.48227867
 20
56.12495951
  0
VERTEX
  8
0
 10
1693.14795885
 20
55.85007155
  0
VERTEX
  8
0
 10
1692.80105311
 20
55.59096150
  0
VERTEX
  8
0
 10
1692.44213660
 20
55.34812669
  0
VERTEX
  8
0
 10
1692.07178448
 20
55.12206444
  0
VERTEX
  8
0
 10
1691.69057189
 20
54.91327207
  0
VERTEX
  8
0
 10
1691.29907399
 20
54.72224690
  0
VERTEX
  8
0
 10
1690.89786593
 20
54.54948625
  0
VERTEX
  8
0
 10
1690.48752287
 20
54.39548744
  0
VERTEX
  8
0
 10
1690.06861995
 20
54.26074780
  0
VERTEX
  8
0
 10
1689.64173232
 20
54.14576463
  0
VERTEX
  8
0
 10
1689.20743515
 20
54.05103526
  0
VERTEX
  8
0
 10
1688.76630358
 20
53.97705701
  0
VERTEX
  8
0
 10
1688.31891276
 20
53.92432721
  0
VERTEX
  8
0
 10
1687.86583785
 20
53.89334316
  0
VERTEX
  8
0
 10
1687.40765400
 20
53.88460220
  0
VERTEX
  8
0
 10
1686.94493636
 20
53.89860164
  0
VERTEX
  8
0
 10
1679.36885355
 20
58.35447302
  0
VERTEX
  8
0
 10
1678.73225265
 20
58.44502507
  0
VERTEX
  8
0
 10
1678.09864283
 20
58.50271375
  0
VERTEX
  8
0
 10
1677.46892549
 20
58.52817867
  0
VERTEX
  8
0
 10
1676.84400198
 20
58.52205945
  0
VERTEX
  8
0
 10
1676.22477368
 20
58.48499569
  0
VERTEX
  8
0
 10
1675.61214197
 20
58.41762701
  0
VERTEX
  8
0
 10
1675.00700823
 20
58.32059301
  0
VERTEX
  8
0
 10
1674.41027382
 20
58.19453331
  0
VERTEX
  8
0
 10
1673.82284011
 20
58.04008750
  0
VERTEX
  8
0
 10
1673.24560849
 20
57.85789521
  0
VERTEX
  8
0
 10
1672.67948033
 20
57.64859604
  0
VERTEX
  8
0
 10
1672.12535700
 20
57.41282961
  0
VERTEX
  8
0
 10
1671.58413988
 20
57.15123551
  0
VERTEX
  8
0
 10
1671.05673033
 20
56.86445337
  0
VERTEX
  8
0
 10
1670.54402974
 20
56.55312279
  0
VERTEX
  8
0
 10
1670.04693947
 20
56.21788338
  0
VERTEX
  8
0
 10
1669.56636091
 20
55.85937474
  0
VERTEX
  8
0
 10
1669.10319542
 20
55.47823650
  0
VERTEX
  8
0
 10
1668.65834438
 20
55.07510826
  0
VERTEX
  8
0
 10
1668.23270916
 20
54.65062963
  0
VERTEX
  8
0
 10
1667.82719114
 20
54.20544022
  0
VERTEX
  8
0
 10
1667.44269169
 20
53.74017963
  0
VERTEX
  8
0
 10
1667.08011219
 20
53.25548749
  0
VERTEX
  8
0
 10
1666.74035401
 20
52.75200339
  0
VERTEX
  8
0
 10
1666.42431852
 20
52.23036695
  0
VERTEX
  8
0
 10
1666.13290709
 20
51.69121777
  0
VERTEX
  8
0
 10
1665.86702111
 20
51.13519548
  0
VERTEX
  8
0
 10
1665.62756194
 20
50.56293967
  0
VERTEX
  8
0
 10
1665.41543096
 20
49.97508996
  0
VERTEX
  8
0
 10
1665.23152955
 20
49.37228595
  0
VERTEX
  8
0
 10
1665.07675907
 20
48.75516726
  0
VERTEX
  8
0
 10
1664.95202090
 20
48.12437350
  0
VERTEX
  8
0
 10
1664.87729026
 20
47.63173272
  0
VERTEX
  8
0
 10
1664.82226604
 20
47.14068524
  0
VERTEX
  8
0
 10
1664.78665531
 20
46.65164694
  0
VERTEX
  8
0
 10
1664.77016515
 20
46.16503369
  0
VERTEX
  8
0
 10
1664.77250261
 20
45.68126139
  0
VERTEX
  8
0
 10
1664.79337476
 20
45.20074591
  0
VERTEX
  8
0
 10
1664.83248867
 20
44.72390314
  0
VERTEX
  8
0
 10
1664.88955142
 20
44.25114897
  0
VERTEX
  8
0
 10
1664.96427005
 20
43.78289928
  0
VERTEX
  8
0
 10
1665.05635166
 20
43.31956995
  0
VERTEX
  8
0
 10
1665.16550329
 20
42.86157687
  0
VERTEX
  8
0
 10
1665.29143202
 20
42.40933592
  0
VERTEX
  8
0
 10
1665.43384492
 20
41.96326299
  0
VERTEX
  8
0
 10
1665.59244905
 20
41.52377395
  0
VERTEX
  8
0
 10
1665.76695148
 20
41.09128470
  0
VERTEX
  8
0
 10
1665.95705928
 20
40.66621111
  0
SEQEND
  0
POLYLINE
  8
METAL_FRAME
 62
256
 66
   1
 39
0.000000
 70
    1
  0
VERTEX
  8
0
 10
1390.70880845
 20
200.32458301
 42
-0.41421356
  0
VERTEX
  8
0
 10
1418.54686069
 20
177.39986170
 42
-0.41421356
  0
VERTEX
  8
0
 10
1395.62213938
 20
149.56180945
  0
VERTEX
  8
0
 10
1365.34979654
 20
146.63174815
 42
-0.41421356
  0
VERTEX
  8
0
 10
1337.51174430
 20
169.55646947
 42
-0.41421356
  0
VERTEX
  8
0
 10
1360.43646562
 20
197.39452171
  0
VERTEX
  8
0
 10
1390.70880845
 20
200.32458301
  0
SEQEND
  0
POLYLINE
  8
METAL_FRAME
 62
256
 66
   1
 39
0.000000
 70
    1
  0
VERTEX
  8
0
 10
1017.91313425
 20
169.23052827
  0
VERTEX
  8
0
 10
1010.13589209
 20
162.80892184
  0
VERTEX
  8
0
 10
722.22584584
 20
454.50454901
  0
VERTEX
  8
0
 10
475.95947726
 20
696.11968866
 42
-0.68627863
  0
VERTEX
  8
0
 10
520.75398266
 20
749.01827765
  0
VERTEX
  8
0
 10
781.30120361
 20
554.07125199
  0
VERTEX
  8
0
 10
782.98371902
 20
552.84163810
  0
VERTEX
  8
0
 10
784.69350564
 20
551.65023190
  0
VERTEX
  8
0
 10
786.42963465
 20
550.49751602
  0
VERTEX
  8
0
 10
788.19117721
 20
549.38397314
  0
VERTEX
  8
0
 10
789.97720447
 20
548.31008593
  0
VERTEX
  8
0
 10
791.78678761
 20
547.27633706
  0
VERTEX
  8
0
 10
793.61899779
 20
546.28320917
  0
VERTEX
  8
0
 10
795.47290616
 20
545.33118495
  0
VERTEX
  8
0
 10
797.34758389
 20
544.42074706
  0
VERTEX
  8
0
 10
799.24210216
 20
543.55237816
  0
VERTEX
  8
0
 10
801.15553210
 20
542.72656093
  0
VERTEX
  8
0
 10
803.08694490
 20
541.94377802
  0
VERTEX
  8
0
 10
805.03541172
 20
541.20451211
  0
VERTEX
  8
0
 10
807.00000370
 20
540.50924585
  0
VERTEX
  8
0
 10
808.97979203
 20
539.85846192
  0
VERTEX
  8
0
 10
810.97384786
 20
539.25264298
  0
VERTEX
  8
0
 10
812.81322276
 20
538.73709421
  0
VERTEX
  8
0
 10
814.66280756
 20
538.25959440
  0
VERTEX
  8
0
 10
816.52180803
 20
537.82024843
  0
VERTEX
  8
0
 10
818.38942992
 20
537.41916116
  0
VERTEX
  8
0
 10
820.26487900
 20
537.05643742
  0
VERTEX
  8
0
 10
822.14736105
 20
536.73218210
  0
VERTEX
  8
0
 10
824.03608183
 20
536.44650004
  0
VERTEX
  8
0
 10
825.93024712
 20
536.19949611
  0
VERTEX
  8
0
 10
827.82906267
 20
535.99127515
  0
VERTEX
  8
0
 10
829.73173424
 20
535.82194202
  0
VERTEX
  8
0
 10
831.63746763
 20
535.69160159
  0
VERTEX
  8
0
 10
833.54546859
 20
535.60035872
  0
VERTEX
  8
0
 10
835.45494288
 20
535.54831825
  0
VERTEX
  8
0
 10
837.36509628
 20
535.53558504
  0
VERTEX
  8
0
 10
839.27513455
 20
535.56226396
  0
VERTEX
  8
0
 10
841.18426347
 20
535.62845986
  0
VERTEX
  8
0
 10
843.04196343
 20
535.73080564
  0
VERTEX
  8
0
 10
844.89723692
 20
535.87027227
  0
VERTEX
  8
0
 10
846.74935022
 20
536.04674807
  0
VERTEX
  8
0
 10
848.59756965
 20
536.26012133
  0
VERTEX
  8
0
 10
850.44116150
 20
536.51028033
  0
VERTEX
  8
0
 10
852.27939206
 20
536.79711338
  0
VERTEX
  8
0
 10
854.11152763
 20
537.12050878
  0
VERTEX
  8
0
 10
855.93683451
 20
537.48035482
  0
VERTEX
  8
0
 10
857.75457900
 20
537.87653982
  0
VERTEX
  8
0
 10
859.56402739
 20
538.30895204
  0
VERTEX
  8
0
 10
861.36444598
 20
538.77747980
  0
VERTEX
  8
0
 10
863.15510107
 20
539.28201139
  0
VERTEX
  8
0
 10
864.93525897
 20
539.82243511
  0
VERTEX
  8
0
 10
866.70418594
 20
540.39863926
  0
VERTEX
  8
0
 10
868.46114833
 20
541.01051213
  0
VERTEX
  8
0
 10
870.20541239
 20
541.65794202
  0
VERTEX
  8
0
 10
871.77625333
 20
542.27558991
  0
VERTEX
  8
0
 10
873.33567281
 20
542.92150797
  0
VERTEX
  8
0
 10
874.88317594
 20
543.59545568
  0
VERTEX
  8
0
 10
876.41826781
 20
544.29719254
  0
VERTEX
  8
0
 10
877.94045352
 20
545.02647803
  0
VERTEX
  8
0
 10
879.44923813
 20
545.78307163
  0
VERTEX
  8
0
 10
880.94412678
 20
546.56673283
  0
VERTEX
  8
0
 10
882.42462453
 20
547.37722111
  0
VERTEX
  8
0
 10
883.89023647
 20
548.21429596
  0
VERTEX
  8
0
 10
885.34046771
 20
549.07771687
  0
VERTEX
  8
0
 10
886.77482333
 20
549.96724330
  0
VERTEX
  8
0
 10
888.19280842
 20
550.88263477
  0
VERTEX
  8
0
 10
889.59392808
 20
551.82365074
  0
VERTEX
  8
0
 10
890.97768741
 20
552.79005072
  0
VERTEX
  8
0
 10
892.34359149
 20
553.78159417
  0
VERTEX
  8
0
 10
893.69114541
 20
554.79804057
  0
VERTEX
  8
0
 10
951.18721427
 20
598.99067288
  0
VERTEX
  8
0
 10
1008.68458176
 20
643.18257621
  0
VERTEX
  8
0
 10
1066.17611537
 20
687.38191844
  0
VERTEX
  8
0
 10
1094.92800490
 20
709.47144930
  0
VERTEX
  8
0
 10
1133.25891730
 20
738.93294426
  0
VERTEX
  8
0
 10
1134.23624437
 20
739.08987966
  0
VERTEX
  8
0
 10
1135.21587721
 20
739.23062983
  0
VERTEX
  8
0
 10
1136.19756914
 20
739.35523438
  0
VERTEX
  8
0
 10
1137.18107339
 20
739.46373296
  0
VERTEX
  8
0
 10
1138.16614328
 20
739.55616517
  0
VERTEX
  8
0
 10
1139.15253207
 20
739.63257065
  0
VERTEX
  8
0
 10
1140.13999304
 20
739.69298903
  0
VERTEX
  8
0
 10
1141.12827946
 20
739.73745992
  0
VERTEX
  8
0
 10
1142.11714462
 20
739.76602297
  0
VERTEX
  8
0
 10
1143.10634179
 20
739.77871777
  0
VERTEX
  8
0
 10
1144.09562426
 20
739.77558397
  0
VERTEX
  8
0
 10
1145.08474529
 20
739.75666118
  0
VERTEX
  8
0
 10
1146.07345816
 20
739.72198904
  0
VERTEX
  8
0
 10
1147.06151617
 20
739.67160717
  0
VERTEX
  8
0
 10
1148.04867257
 20
739.60555519
  0
VERTEX
  8
0
 10
1149.03468065
 20
739.52387274
  0
VERTEX
  8
0
 10
1150.01929370
 20
739.42659942
  0
VERTEX
  8
0
 10
1151.00226498
 20
739.31377488
  0
VERTEX
  8
0
 10
1151.98334777
 20
739.18543872
  0
VERTEX
  8
0
 10
1152.96229536
 20
739.04163059
  0
VERTEX
  8
0
 10
1153.93886101
 20
738.88239011
  0
VERTEX
  8
0
 10
1154.91279801
 20
738.70775690
  0
VERTEX
  8
0
 10
1155.88385963
 20
738.51777058
  0
VERTEX
  8
0
 10
1156.85179917
 20
738.31247078
  0
VERTEX
  8
0
 10
1157.81636988
 20
738.09189712
  0
VERTEX
  8
0
 10
1158.77732504
 20
737.85608923
  0
VERTEX
  8
0
 10
1159.73441794
 20
737.60508675
  0
VERTEX
  8
0
 10
1160.68740187
 20
737.33892929
  0
VERTEX
  8
0
 10
1161.63603009
 20
737.05765646
  0
VERTEX
  8
0
 10
1162.58005586
 20
736.76130791
  0
VERTEX
  8
0
 10
1163.51923250
 20
736.44992326
  0
VERTEX
  8
0
 10
1164.45331326
 20
736.12354213
  0
VERTEX
  8
0
 10
1165.51990591
 20
735.72981085
  0
VERTEX
  8
0
 10
1166.57878274
 20
735.31607531
  0
VERTEX
  8
0
 10
1167.62963895
 20
734.88256558
  0
VERTEX
  8
0
 10
1168.67216975
 20
734.42951176
  0
VERTEX
  8
0
 10
1169.70607034
 20
733.95714388
  0
VERTEX
  8
0
 10
1170.73103594
 20
733.46569204
  0
VERTEX
  8
0
 10
1171.74676175
 20
732.95538632
  0
VERTEX
  8
0
 10
1172.75294298
 20
732.42645678
  0
VERTEX
  8
0
 10
1173.74927484
 20
731.87913351
  0
VERTEX
  8
0
 10
1174.73545252
 20
731.31364657
  0
VERTEX
  8
0
 10
1175.71117125
 20
730.73022605
  0
VERTEX
  8
0
 10
1176.67612622
 20
730.12910201
  0
VERTEX
  8
0
 10
1177.63001265
 20
729.51050452
  0
VERTEX
  8
0
 10
1178.57252574
 20
728.87466368
  0
VERTEX
  8
0
 10
1179.50336070
 20
728.22180956
  0
VERTEX
  8
0
 10
1180.42221274
 20
727.55217221
  0
VERTEX
  8
0
 10
1181.32877706
 20
726.86598172
  0
VERTEX
  8
0
 10
1182.22274887
 20
726.16346817
  0
VERTEX
  8
0
 10
1183.10382338
 20
725.44486162
  0
VERTEX
  8
0
 10
1183.97169580
 20
724.71039216
  0
VERTEX
  8
0
 10
1184.82606133
 20
723.96028987
  0
VERTEX
  8
0
 10
1185.66661518
 20
723.19478480
  0
VERTEX
  8
0
 10
1186.49305256
 20
722.41410704
  0
VERTEX
  8
0
 10
1187.30506867
 20
721.61848666
  0
VERTEX
  8
0
 10
1188.10235873
 20
720.80815375
  0
VERTEX
  8
0
 10
1188.88461794
 20
719.98333836
  0
VERTEX
  8
0
 10
1189.65154149
 20
719.14427058
  0
VERTEX
  8
0
 10
1190.40282463
 20
718.29118049
  0
VERTEX
  8
0
 10
1191.13816253
 20
717.42429814
  0
VERTEX
  8
0
 10
1191.85725041
 20
716.54385363
  0
VERTEX
  8
0
 10
1192.55978347
 20
715.65007703
  0
VERTEX
  8
0
 10
1193.24545693
 20
714.74319841
  0
VERTEX
  8
0
 10
1194.36278397
 20
713.18586658
  0
VERTEX
  8
0
 10
1195.43109561
 20
711.59460239
  0
VERTEX
  8
0
 10
1196.44965077
 20
709.97106219
  0
VERTEX
  8
0
 10
1197.41770842
 20
708.31690233
  0
VERTEX
  8
0
 10
1198.33452748
 20
706.63377915
  0
VERTEX
  8
0
 10
1199.19936690
 20
704.92334899
  0
VERTEX
  8
0
 10
1200.01148564
 20
703.18726822
  0
VERTEX
  8
0
 10
1200.77014261
 20
701.42719317
  0
VERTEX
  8
0
 10
1201.47459679
 20
699.64478021
  0
VERTEX
  8
0
 10
1202.12410710
 20
697.84168567
  0
VERTEX
  8
0
 10
1202.71793249
 20
696.01956589
  0
VERTEX
  8
0
 10
1203.25533191
 20
694.18007723
  0
VERTEX
  8
0
 10
1203.73556429
 20
692.32487605
  0
VERTEX
  8
0
 10
1204.15788858
 20
690.45561866
  0
VERTEX
  8
0
 10
1204.34710362
 20
689.51623652
  0
VERTEX
  8
0
 10
1204.52156372
 20
688.57396146
  0
VERTEX
  8
0
 10
1204.68117629
 20
687.62900052
  0
VERTEX
  8
0
 10
1204.82584866
 20
686.68156075
  0
VERTEX
  8
0
 10
1204.95040955
 20
685.77216167
 42
-0.53724555
  0
VERTEX
  8
0
 10
1199.90671292
 20
681.40664117
 42
0.86490825
  0
VERTEX
  8
0
 10
1181.01299471
 20
638.77525111
  0
VERTEX
  8
0
 10
1119.27945869
 20
590.73016238
  0
VERTEX
  8
0
 10
1064.26763096
 20
547.91586992
  0
VERTEX
  8
0
 10
1062.94545116
 20
546.26064798
  0
VERTEX
  8
0
 10
1061.64260975
 20
544.59128522
  0
VERTEX
  8
0
 10
1060.35937687
 20
542.90792076
  0
VERTEX
  8
0
 10
1059.09602264
 20
541.21069372
  0
VERTEX
  8
0
 10
1057.85281722
 20
539.49974319
  0
VERTEX
  8
0
 10
1056.63003073
 20
537.77520828
  0
VERTEX
  8
0
 10
1055.42793333
 20
536.03722809
  0
VERTEX
  8
0
 10
1054.24679513
 20
534.28594175
  0
VERTEX
  8
0
 10
1053.08688628
 20
532.52148834
  0
VERTEX
  8
0
 10
1051.94847693
 20
530.74400699
  0
VERTEX
  8
0
 10
1050.83183720
 20
528.95363679
  0
VERTEX
  8
0
 10
1049.73723724
 20
527.15051686
  0
VERTEX
  8
0
 10
1048.66494718
 20
525.33478630
  0
VERTEX
  8
0
 10
1047.61523717
 20
523.50658422
  0
VERTEX
  8
0
 10
1046.58837733
 20
521.66604971
  0
VERTEX
  8
0
 10
1045.58463782
 20
519.81332191
  0
VERTEX
  8
0
 10
1044.60428876
 20
517.94853990
  0
VERTEX
  8
0
 10
1043.64760030
 20
516.07184281
  0
VERTEX
  8
0
 10
1042.71484257
 20
514.18336972
  0
VERTEX
  8
0
 10
1041.80628570
 20
512.28325976
  0
VERTEX
  8
0
 10
1040.92219985
 20
510.37165203
  0
VERTEX
  8
0
 10
1040.06285516
 20
508.44868563
  0
VERTEX
  8
0
 10
1039.22852174
 20
506.51449967
  0
VERTEX
  8
0
 10
1038.41946974
 20
504.56923327
  0
VERTEX
  8
0
 10
1037.63596931
 20
502.61302552
  0
VERTEX
  8
0
 10
1036.87829058
 20
500.64601553
  0
VERTEX
  8
0
 10
1036.14670369
 20
498.66834242
  0
VERTEX
  8
0
 10
1035.44147878
 20
496.68014528
  0
VERTEX
  8
0
 10
1034.76288596
 20
494.68156323
  0
VERTEX
  8
0
 10
1034.11119542
 20
492.67273536
  0
VERTEX
  8
0
 10
1033.48667725
 20
490.65380080
  0
VERTEX
  8
0
 10
1032.88960162
 20
488.62489865
  0
VERTEX
  8
0
 10
1031.95986108
 20
485.29052062
  0
VERTEX
  8
0
 10
1031.07925480
 20
481.94567668
  0
VERTEX
  8
0
 10
1030.24662102
 20
478.59075377
  0
VERTEX
  8
0
 10
1029.46079800
 20
475.22613883
  0
VERTEX
  8
0
 10
1028.72062399
 20
471.85221883
  0
VERTEX
  8
0
 10
1028.02493723
 20
468.46938071
  0
VERTEX
  8
0
 10
1027.37257598
 20
465.07801140
  0
VERTEX
  8
0
 10
1026.76237848
 20
461.67849788
  0
VERTEX
  8
0
 10
1026.19318298
 20
458.27122708
  0
VERTEX
  8
0
 10
1025.66382774
 20
454.85658595
  0
VERTEX
  8
0
 10
1025.17315099
 20
451.43496144
  0
VERTEX
  8
0
 10
1024.71999099
 20
448.00674049
  0
VERTEX
  8
0
 10
1024.30318600
 20
444.57231006
  0
VERTEX
  8
0
 10
1023.92157424
 20
441.13205709
  0
VERTEX
  8
0
 10
1023.57399399
 20
437.68636854
  0
VERTEX
  8
0
 10
1023.25928349
 20
434.23563135
  0
VERTEX
  8
0
 10
1022.97628098
 20
430.78023246
  0
VERTEX
  8
0
 10
1022.72382472
 20
427.32055883
  0
VERTEX
  8
0
 10
1022.50075295
 20
423.85699741
  0
VERTEX
  8
0
 10
1022.30590393
 20
420.38993514
  0
VERTEX
  8
0
 10
1022.13811590
 20
416.91975897
  0
VERTEX
  8
0
 10
1021.99622711
 20
413.44685585
  0
VERTEX
  8
0
 10
1021.87907581
 20
409.97161272
  0
VERTEX
  8
0
 10
1021.78550025
 20
406.49441655
  0
VERTEX
  8
0
 10
1021.71433868
 20
403.01565427
  0
VERTEX
  8
0
 10
1021.66442936
 20
399.53571283
  0
VERTEX
  8
0
 10
1021.63461051
 20
396.05497918
  0
VERTEX
  8
0
 10
1021.62372041
 20
392.57384026
  0
VERTEX
  8
0
 10
1021.63059729
 20
389.09268304
  0
VERTEX
  8
0
 10
1021.65407941
 20
385.61189446
  0
VERTEX
  8
0
 10
1021.74621235
 20
378.65297098
  0
VERTEX
  8
0
 10
1021.81954824
 20
375.48222299
  0
VERTEX
  8
0
 10
1021.93057641
 20
372.31328616
  0
VERTEX
  8
0
 10
1022.07984880
 20
369.14664859
  0
VERTEX
  8
0
 10
1022.26791735
 20
365.98279840
  0
VERTEX
  8
0
 10
1022.49533399
 20
362.82222369
  0
VERTEX
  8
0
 10
1022.76265066
 20
359.66541258
  0
VERTEX
  8
0
 10
1023.07041929
 20
356.51285318
  0
VERTEX
  8
0
 10
1023.41919183
 20
353.36503358
  0
VERTEX
  8
0
 10
1023.80952021
 20
350.22244192
  0
VERTEX
  8
0
 10
1024.24195637
 20
347.08556630
  0
VERTEX
  8
0
 10
1024.71705224
 20
343.95489483
  0
VERTEX
  8
0
 10
1025.23535977
 20
340.83091561
  0
VERTEX
  8
0
 10
1025.79743087
 20
337.71411676
  0
VERTEX
  8
0
 10
1026.40381751
 20
334.60498640
  0
VERTEX
  8
0
 10
1027.05507161
 20
331.50401263
  0
VERTEX
  8
0
 10
1027.75174510
 20
328.41168355
  0
VERTEX
  8
0
 10
1062.34198256
 20
183.44022337
 42
-0.29882803
  0
VERTEX
  8
0
 10
1054.88793633
 20
162.79841097
  0
VERTEX
  8
0
 10
1054.52418398
 20
162.51205060
  0
VERTEX
  8
0
 10
1054.15055508
 20
162.24662705
  0
VERTEX
  8
0
 10
1053.76780797
 20
162.00208529
  0
VERTEX
  8
0
 10
1053.37670102
 20
161.77837030
  0
VERTEX
  8
0
 10
1052.97799255
 20
161.57542703
  0
VERTEX
  8
0
 10
1052.57244095
 20
161.39320045
  0
VERTEX
  8
0
 10
1052.16080455
 20
161.23163553
  0
VERTEX
  8
0
 10
1051.74384170
 20
161.09067722
  0
VERTEX
  8
0
 10
1051.32231076
 20
160.97027051
  0
VERTEX
  8
0
 10
1050.89697010
 20
160.87036034
  0
VERTEX
  8
0
 10
1050.46857805
 20
160.79089168
  0
VERTEX
  8
0
 10
1050.03789296
 20
160.73180949
  0
VERTEX
  8
0
 10
1049.60567320
 20
160.69305875
  0
VERTEX
  8
0
 10
1049.17267710
 20
160.67458442
  0
VERTEX
  8
0
 10
1048.73966304
 20
160.67633145
  0
VERTEX
  8
0
 10
1048.30738935
 20
160.69824481
  0
VERTEX
  8
0
 10
1047.87661440
 20
160.74026948
  0
VERTEX
  8
0
 10
1047.44809653
 20
160.80235041
  0
VERTEX
  8
0
 10
1047.02259409
 20
160.88443257
  0
VERTEX
  8
0
 10
1046.60086544
 20
160.98646091
  0
VERTEX
  8
0
 10
1046.18366893
 20
161.10838042
  0
VERTEX
  8
0
 10
1045.77176292
 20
161.25013605
  0
VERTEX
  8
0
 10
1045.36590575
 20
161.41167276
  0
VERTEX
  8
0
 10
1044.96685579
 20
161.59293552
  0
VERTEX
  8
0
 10
1044.57537138
 20
161.79386930
  0
VERTEX
  8
0
 10
1044.19221086
 20
162.01441906
  0
VERTEX
  8
0
 10
1043.81813261
 20
162.25452975
  0
VERTEX
  8
0
 10
1043.45389496
 20
162.51414635
  0
VERTEX
  8
0
 10
1043.10025628
 20
162.79321384
  0
VERTEX
  8
0
 10
1042.75797491
 20
163.09167715
  0
VERTEX
  8
0
 10
1042.42780921
 20
163.40948126
  0
VERTEX
  8
0
 10
1042.11051753
 20
163.74657114
  0
VERTEX
  8
0
 10
1039.90419487
 20
172.25444754
  0
VERTEX
  8
0
 10
1039.51808002
 20
172.76862232
  0
VERTEX
  8
0
 10
1039.11084228
 20
173.25744418
  0
VERTEX
  8
0
 10
1038.68357129
 20
173.72072800
  0
VERTEX
  8
0
 10
1038.23735670
 20
174.15828871
  0
VERTEX
  8
0
 10
1037.77328813
 20
174.56994120
  0
VERTEX
  8
0
 10
1037.29245525
 20
174.95550039
  0
VERTEX
  8
0
 10
1036.79594768
 20
175.31478116
  0
VERTEX
  8
0
 10
1036.28485506
 20
175.64759844
  0
VERTEX
  8
0
 10
1035.76026702
 20
175.95376712
  0
VERTEX
  8
0
 10
1035.22327322
 20
176.23310211
  0
VERTEX
  8
0
 10
1034.67496330
 20
176.48541831
  0
VERTEX
  8
0
 10
1034.11642690
 20
176.71053063
  0
VERTEX
  8
0
 10
1033.54875364
 20
176.90825396
  0
VERTEX
  8
0
 10
1032.97303317
 20
177.07840324
  0
VERTEX
  8
0
 10
1032.39035514
 20
177.22079334
  0
VERTEX
  8
0
 10
1031.80180918
 20
177.33523918
  0
VERTEX
  8
0
 10
1031.20848493
 20
177.42155565
  0
VERTEX
  8
0
 10
1030.61147204
 20
177.47955767
  0
VERTEX
  8
0
 10
1030.01186014
 20
177.50906014
  0
VERTEX
  8
0
 10
1029.41073887
 20
177.50987798
  0
VERTEX
  8
0
 10
1028.80919788
 20
177.48182607
  0
VERTEX
  8
0
 10
1028.20832680
 20
177.42471932
  0
VERTEX
  8
0
 10
1027.60921527
 20
177.33837264
  0
VERTEX
  8
0
 10
1027.01295294
 20
177.22260093
  0
VERTEX
  8
0
 10
1026.42062944
 20
177.07721911
  0
VERTEX
  8
0
 10
1025.83333440
 20
176.90204207
  0
VERTEX
  8
0
 10
1025.25215749
 20
176.69688471
  0
VERTEX
  8
0
 10
1024.67818832
 20
176.46156195
  0
VERTEX
  8
0
 10
1024.11251655
 20
176.19588869
  0
VERTEX
  8
0
 10
1023.55623181
 20
175.89967982
  0
VERTEX
  8
0
 10
1023.01042374
 20
175.57275027
  0
VERTEX
  8
0
 10
1022.47618199
 20
175.21491493
  0
VERTEX
  8
0
 10
1022.07498981
 20
174.91940783
  0
VERTEX
  8
0
 10
1021.68885881
 20
174.61109283
  0
VERTEX
  8
0
 10
1021.31787593
 20
174.29047112
  0
VERTEX
  8
0
 10
1020.96212809
 20
173.95804390
  0
VERTEX
  8
0
 10
1020.62170225
 20
173.61431239
  0
VERTEX
  8
0
 10
1020.29668534
 20
173.25977779
  0
VERTEX
  8
0
 10
1019.98716429
 20
172.89494133
  0
VERTEX
  8
0
 10
1019.69322607
 20
172.52030419
  0
VERTEX
  8
0
 10
1019.41495759
 20
172.13636761
  0
VERTEX
  8
0
 10
1019.15244581
 20
171.74363277
  0
VERTEX
  8
0
 10
1018.90577765
 20
171.34260090
  0
VERTEX
  8
0
 10
1018.67504007
 20
170.93377320
  0
VERTEX
  8
0
 10
1018.46032000
 20
170.51765087
  0
VERTEX
  8
0
 10
1018.26170438
 20
170.09473514
  0
VERTEX
  8
0
 10
1018.07928015
 20
169.66552721
  0
VERTEX
  8
0
 10
1017.91313425
 20
169.23052827
  0
SEQEND
  0
POLYLINE
  8
METAL_FRAME
 62
256
 66
   1
 39
0.000000
 70
    1
  0
VERTEX
  8
0
 10
936.17874702
 20
476.75595039
 42
-0.41421356
  0
VERTEX
  8
0
 10
939.65299664
 20
440.86124897
 42
-0.41421356
  0
VERTEX
  8
0
 10
903.75829522
 20
437.38699935
  0
VERTEX
  8
0
 10
880.28065010
 20
456.72091204
 42
-0.41421356
  0
VERTEX
  8
0
 10
876.80640049
 20
492.61561346
 42
-0.41421356
  0
VERTEX
  8
0
 10
912.70110191
 20
496.08986307
  0
VERTEX
  8
0
 10
936.17874702
 20
476.75595039
  0
SEQEND
  0
POLYLINE
  8
METAL_FRAME
 62
256
 66
   1
 39
0.000000
 70
    1
  0
VERTEX
  8
0
 10
1788.91917752
 20
925.18934274
  0
VERTEX
  8
0
 10
1798.95927964
 20
924.23076353
  0
VERTEX
  8
0
 10
1796.28246970
 20
514.38766144
  0
VERTEX
  8
0
 10
1799.57138522
 20
169.40333855
 42
-0.68627863
  0
VERTEX
  8
0
 10
1730.49193570
 20
163.67288609
  0
VERTEX
  8
0
 10
1684.10559277
 20
485.75595666
  0
VERTEX
  8
0
 10
1683.78534303
 20
487.81514303
  0
VERTEX
  8
0
 10
1683.41879272
 20
489.86659615
  0
VERTEX
  8
0
 10
1683.00625734
 20
491.90931796
  0
VERTEX
  8
0
 10
1682.54805237
 20
493.94231037
  0
VERTEX
  8
0
 10
1682.04449331
 20
495.96457529
  0
VERTEX
  8
0
 10
1681.49589564
 20
497.97511464
  0
VERTEX
  8
0
 10
1680.90257486
 20
499.97293034
  0
VERTEX
  8
0
 10
1680.26484646
 20
501.95702431
  0
VERTEX
  8
0
 10
1679.58302593
 20
503.92639845
  0
VERTEX
  8
0
 10
1678.85742876
 20
505.88005470
  0
VERTEX
  8
0
 10
1678.08837043
 20
507.81699495
  0
VERTEX
  8
0
 10
1677.27616645
 20
509.73622114
  0
VERTEX
  8
0
 10
1676.42113229
 20
511.63673518
  0
VERTEX
  8
0
 10
1675.52358346
 20
513.51753898
  0
VERTEX
  8
0
 10
1674.58383544
 20
515.37763446
  0
VERTEX
  8
0
 10
1673.60220372
 20
517.21602354
  0
VERTEX
  8
0
 10
1672.66611729
 20
518.88120604
  0
VERTEX
  8
0
 10
1671.69590668
 20
520.52670335
  0
VERTEX
  8
0
 10
1670.69205936
 20
522.15187970
  0
VERTEX
  8
0
 10
1669.65506279
 20
523.75609933
  0
VERTEX
  8
0
 10
1668.58540444
 20
525.33872651
  0
VERTEX
  8
0
 10
1667.48357175
 20
526.89912547
  0
VERTEX
  8
0
 10
1666.35005220
 20
528.43666046
  0
VERTEX
  8
0
 10
1665.18533324
 20
529.95069574
  0
VERTEX
  8
0
 10
1663.98990234
 20
531.44059554
  0
VERTEX
  8
0
 10
1662.76424697
 20
532.90572412
  0
VERTEX
  8
0
 10
1661.50885457
 20
534.34544572
  0
VERTEX
  8
0
 10
1660.22421261
 20
535.75912459
  0
VERTEX
  8
0
 10
1658.91080856
 20
537.14612498
  0
VERTEX
  8
0
 10
1657.56912987
 20
538.50581114
  0
VERTEX
  8
0
 10
1656.19966401
 20
539.83754731
  0
VERTEX
  8
0
 10
1654.80289844
 20
541.14069774
  0
VERTEX
  8
0
 10
1653.41693681
 20
542.38192059
  0
VERTEX
  8
0
 10
1652.00644254
 20
543.59517925
  0
VERTEX
  8
0
 10
1650.57201343
 20
544.78003390
  0
VERTEX
  8
0
 10
1649.11424726
 20
545.93604471
  0
VERTEX
  8
0
 10
1647.63374184
 20
547.06277188
  0
VERTEX
  8
0
 10
1646.13109495
 20
548.15977558
  0
VERTEX
  8
0
 10
1644.60690438
 20
549.22661598
  0
VERTEX
  8
0
 10
1643.06176793
 20
550.26285328
  0
VERTEX
  8
0
 10
1641.49628338
 20
551.26804764
  0
VERTEX
  8
0
 10
1639.91104854
 20
552.24175925
  0
VERTEX
  8
0
 10
1638.30666119
 20
553.18354829
  0
VERTEX
  8
0
 10
1636.68371912
 20
554.09297494
  0
VERTEX
  8
0
 10
1635.04282012
 20
554.96959938
  0
VERTEX
  8
0
 10
1633.38456200
 20
555.81298178
  0
VERTEX
  8
0
 10
1631.70954253
 20
556.62268234
  0
VERTEX
  8
0
 10
1630.01835952
 20
557.39826122
  0
VERTEX
  8
0
 10
1628.47086423
 20
558.07227049
  0
VERTEX
  8
0
 10
1626.91145510
 20
558.71821354
  0
VERTEX
  8
0
 10
1625.34065214
 20
559.33591050
  0
VERTEX
  8
0
 10
1623.75897538
 20
559.92518148
  0
VERTEX
  8
0
 10
1622.16694483
 20
560.48584660
  0
VERTEX
  8
0
 10
1620.56508053
 20
561.01772597
  0
VERTEX
  8
0
 10
1618.95390248
 20
561.52063972
  0
VERTEX
  8
0
 10
1617.33393073
 20
561.99440796
  0
VERTEX
  8
0
 10
1615.70568528
 20
562.43885080
  0
VERTEX
  8
0
 10
1614.06968616
 20
562.85378836
  0
VERTEX
  8
0
 10
1612.42645340
 20
563.23904077
  0
VERTEX
  8
0
 10
1610.77650701
 20
563.59442813
  0
VERTEX
  8
0
 10
1609.12036702
 20
563.91977057
  0
VERTEX
  8
0
 10
1607.45855344
 20
564.21488820
  0
VERTEX
  8
0
 10
1605.79158631
 20
564.47960114
  0
VERTEX
  8
0
 10
1604.11998565
 20
564.71372951
  0
VERTEX
  8
0
 10
1532.21521548
 20
574.12067971
  0
VERTEX
  8
0
 10
1460.31004251
 20
583.52906364
  0
VERTEX
  8
0
 10
1388.40373462
 20
592.92806231
  0
VERTEX
  8
0
 10
1352.45342150
 20
597.63906130
  0
VERTEX
  8
0
 10
1304.51695054
 20
603.91068652
  0
VERTEX
  8
0
 10
1303.71490586
 20
604.49079103
  0
VERTEX
  8
0
 10
1302.92267543
 20
605.08397066
  0
VERTEX
  8
0
 10
1302.14040569
 20
605.69002295
  0
VERTEX
  8
0
 10
1301.36824308
 20
606.30874540
  0
VERTEX
  8
0
 10
1300.60633404
 20
606.93993555
  0
VERTEX
  8
0
 10
1299.85482500
 20
607.58339092
  0
VERTEX
  8
0
 10
1299.11386241
 20
608.23890902
  0
VERTEX
  8
0
 10
1298.38359271
 20
608.90628738
  0
VERTEX
  8
0
 10
1297.66416233
 20
609.58532352
  0
VERTEX
  8
0
 10
1296.95571772
 20
610.27581497
  0
VERTEX
  8
0
 10
1296.25840531
 20
610.97755924
  0
VERTEX
  8
0
 10
1295.57237155
 20
611.69035386
  0
VERTEX
  8
0
 10
1294.89776288
 20
612.41399634
  0
VERTEX
  8
0
 10
1294.23472573
 20
613.14828422
  0
VERTEX
  8
0
 10
1293.58340654
 20
613.89301501
  0
VERTEX
  8
0
 10
1292.94395176
 20
614.64798623
  0
VERTEX
  8
0
 10
1292.31650782
 20
615.41299541
  0
VERTEX
  8
0
 10
1291.70122116
 20
616.18784007
  0
VERTEX
  8
0
 10
1291.09823823
 20
616.97231773
  0
VERTEX
  8
0
 10
1290.50770546
 20
617.76622591
  0
VERTEX
  8
0
 10
1289.92976929
 20
618.56936213
  0
VERTEX
  8
0
 10
1289.36457616
 20
619.38152392
  0
VERTEX
  8
0
 10
1288.81227252
 20
620.20250879
  0
VERTEX
  8
0
 10
1288.27300479
 20
621.03211428
  0
VERTEX
  8
0
 10
1287.74691943
 20
621.87013790
  0
VERTEX
  8
0
 10
1287.23416287
 20
622.71637717
  0
VERTEX
  8
0
 10
1286.73488155
 20
623.57062961
  0
VERTEX
  8
0
 10
1286.24922190
 20
624.43269275
  0
VERTEX
  8
0
 10
1285.77733038
 20
625.30236412
  0
VERTEX
  8
0
 10
1285.31935342
 20
626.17944122
  0
VERTEX
  8
0
 10
1284.87543745
 20
627.06372158
  0
VERTEX
  8
0
 10
1284.44572892
 20
627.95500273
  0
VERTEX
  8
0
 10
1283.96994408
 20
628.98760769
  0
VERTEX
  8
0
 10
1283.51376030
 20
630.02890188
  0
VERTEX
  8
0
 10
1283.07723041
 20
631.07850710
  0
VERTEX
  8
0
 10
1282.66040725
 20
632.13604513
  0
VERTEX
  8
0
 10
1282.26334366
 20
633.20113778
  0
VERTEX
  8
0
 10
1281.88609246
 20
634.27340683
  0
VERTEX
  8
0
 10
1281.52870649
 20
635.35247408
  0
VERTEX
  8
0
 10
1281.19123858
 20
636.43796131
  0
VERTEX
  8
0
 10
1280.87374157
 20
637.52949032
  0
VERTEX
  8
0
 10
1280.57626829
 20
638.62668290
  0
VERTEX
  8
0
 10
1280.29887157
 20
639.72916083
  0
VERTEX
  8
0
 10
1280.04160425
 20
640.83654592
  0
VERTEX
  8
0
 10
1279.80451916
 20
641.94845996
  0
VERTEX
  8
0
 10
1279.58766913
 20
643.06452473
  0
VERTEX
  8
0
 10
1279.39110700
 20
644.18436202
  0
VERTEX
  8
0
 10
1279.21488560
 20
645.30759364
  0
VERTEX
  8
0
 10
1279.05905777
 20
646.43384136
  0
VERTEX
  8
0
 10
1278.92367634
 20
647.56272699
  0
VERTEX
  8
0
 10
1278.80879414
 20
648.69387231
  0
VERTEX
  8
0
 10
1278.71446400
 20
649.82689912
  0
VERTEX
  8
0
 10
1278.64073876
 20
650.96142920
  0
VERTEX
  8
0
 10
1278.58767126
 20
652.09708435
  0
VERTEX
  8
0
 10
1278.55531432
 20
653.23348636
  0
VERTEX
  8
0
 10
1278.54372079
 20
654.37025703
  0
VERTEX
  8
0
 10
1278.55294348
 20
655.50701813
  0
VERTEX
  8
0
 10
1278.58303524
 20
656.64339148
  0
VERTEX
  8
0
 10
1278.63404891
 20
657.77899884
  0
VERTEX
  8
0
 10
1278.70603730
 20
658.91346203
  0
VERTEX
  8
0
 10
1278.79905327
 20
660.04640283
  0
VERTEX
  8
0
 10
1278.91314964
 20
661.17744303
  0
VERTEX
  8
0
 10
1279.04837924
 20
662.30620442
  0
VERTEX
  8
0
 10
1279.20479491
 20
663.43230879
  0
VERTEX
  8
0
 10
1279.51592528
 20
665.32357822
  0
VERTEX
  8
0
 10
1279.88570858
 20
667.20418232
  0
VERTEX
  8
0
 10
1280.31349760
 20
669.07242587
  0
VERTEX
  8
0
 10
1280.79864513
 20
670.92661365
  0
VERTEX
  8
0
 10
1281.34050397
 20
672.76505044
  0
VERTEX
  8
0
 10
1281.93842691
 20
674.58604102
  0
VERTEX
  8
0
 10
1282.59176673
 20
676.38789017
  0
VERTEX
  8
0
 10
1283.29987624
 20
678.16890267
  0
VERTEX
  8
0
 10
1284.06210821
 20
679.92738329
  0
VERTEX
  8
0
 10
1284.87781544
 20
681.66163681
  0
VERTEX
  8
0
 10
1285.74635073
 20
683.36996802
  0
VERTEX
  8
0
 10
1286.66706686
 20
685.05068170
  0
VERTEX
  8
0
 10
1287.63931663
 20
686.70208261
  0
VERTEX
  8
0
 10
1288.66245283
 20
688.32247555
  0
VERTEX
  8
0
 10
1289.19290108
 20
689.12051427
  0
VERTEX
  8
0
 10
1289.73582824
 20
689.91016528
  0
VERTEX
  8
0
 10
1290.29115340
 20
690.69121669
  0
VERTEX
  8
0
 10
1290.85879567
 20
691.46345660
  0
VERTEX
  8
0
 10
1291.41376008
 20
692.19457670
 42
-0.53724555
  0
VERTEX
  8
0
 10
1298.06708132
 20
691.71503376
 42
0.86490825
  0
VERTEX
  8
0
 10
1341.57190259
 20
708.50010250
  0
VERTEX
  8
0
 10
1419.19711258
 20
698.82090859
  0
VERTEX
  8
0
 10
1488.37062554
 20
690.19594869
  0
VERTEX
  8
0
 10
1490.47596650
 20
690.43144505
  0
VERTEX
  8
0
 10
1492.57763222
 20
690.69061478
  0
VERTEX
  8
0
 10
1494.67533332
 20
690.97355053
  0
VERTEX
  8
0
 10
1496.76878041
 20
691.28034494
  0
VERTEX
  8
0
 10
1498.85768412
 20
691.61109068
  0
VERTEX
  8
0
 10
1500.94175507
 20
691.96588039
  0
VERTEX
  8
0
 10
1503.02070387
 20
692.34480674
  0
VERTEX
  8
0
 10
1505.09424115
 20
692.74796236
  0
VERTEX
  8
0
 10
1507.16207753
 20
693.17543992
  0
VERTEX
  8
0
 10
1509.22392362
 20
693.62733206
  0
VERTEX
  8
0
 10
1511.27949005
 20
694.10373144
  0
VERTEX
  8
0
 10
1513.32848744
 20
694.60473072
  0
VERTEX
  8
0
 10
1515.37062640
 20
695.13042254
  0
VERTEX
  8
0
 10
1517.40561756
 20
695.68089956
  0
VERTEX
  8
0
 10
1519.43317154
 20
696.25625444
  0
VERTEX
  8
0
 10
1521.45299895
 20
696.85657981
  0
VERTEX
  8
0
 10
1523.46481042
 20
697.48196835
  0
VERTEX
  8
0
 10
1525.46831656
 20
698.13251269
  0
VERTEX
  8
0
 10
1527.46322800
 20
698.80830550
  0
VERTEX
  8
0
 10
1529.44925536
 20
699.50943942
  0
VERTEX
  8
0
 10
1531.42610925
 20
700.23600711
  0
VERTEX
  8
0
 10
1533.39350029
 20
700.98810123
  0
VERTEX
  8
0
 10
1535.35113912
 20
701.76581442
  0
VERTEX
  8
0
 10
1537.29873634
 20
702.56923933
  0
VERTEX
  8
0
 10
1539.23600257
 20
703.39846863
  0
VERTEX
  8
0
 10
1541.16264844
 20
704.25359496
  0
VERTEX
  8
0
 10
1543.07838456
 20
705.13471098
  0
VERTEX
  8
0
 10
1544.98292156
 20
706.04190934
  0
VERTEX
  8
0
 10
1546.87597006
 20
706.97528268
  0
VERTEX
  8
0
 10
1548.75724067
 20
707.93492368
  0
VERTEX
  8
0
 10
1550.62644402
 20
708.92092497
  0
VERTEX
  8
0
 10
1552.48329072
 20
709.93337921
  0
VERTEX
  8
0
 10
1555.49847787
 20
711.63371469
  0
VERTEX
  8
0
 10
1558.48632238
 20
713.37619385
  0
VERTEX
  8
0
 10
1561.44737211
 20
715.15972160
  0
VERTEX
  8
0
 10
1564.38217493
 20
716.98320285
  0
VERTEX
  8
0
 10
1567.29127871
 20
718.84554250
  0
VERTEX
  8
0
 10
1570.17523131
 20
720.74564545
  0
VERTEX
  8
0
 10
1573.03458061
 20
722.68241662
  0
VERTEX
  8
0
 10
1575.86987446
 20
724.65476089
  0
VERTEX
  8
0
 10
1578.68166075
 20
726.66158318
  0
VERTEX
  8
0
 10
1581.47048733
 20
728.70178840
  0
VERTEX
  8
0
 10
1584.23690208
 20
730.77428144
  0
VERTEX
  8
0
 10
1586.98145286
 20
732.87796721
  0
VERTEX
  8
0
 10
1589.70468755
 20
735.01175062
  0
VERTEX
  8
0
 10
1592.40715401
 20
737.17453656
  0
VERTEX
  8
0
 10
1595.08940010
 20
739.36522995
  0
VERTEX
  8
0
 10
1597.75197370
 20
741.58273569
  0
VERTEX
  8
0
 10
1600.39542268
 20
743.82595868
  0
VERTEX
  8
0
 10
1603.02029490
 20
746.09380383
  0
VERTEX
  8
0
 10
1605.62713823
 20
748.38517604
  0
VERTEX
  8
0
 10
1608.21650053
 20
750.69898022
  0
VERTEX
  8
0
 10
1610.78892969
 20
753.03412126
  0
VERTEX
  8
0
 10
1613.34497356
 20
755.38950409
  0
VERTEX
  8
0
 10
1615.88518002
 20
757.76403359
  0
VERTEX
  8
0
 10
1618.41009693
 20
760.15661467
  0
VERTEX
  8
0
 10
1620.92027215
 20
762.56615224
  0
VERTEX
  8
0
 10
1623.41625357
 20
764.99155121
  0
VERTEX
  8
0
 10
1625.89858904
 20
767.43171647
  0
VERTEX
  8
0
 10
1628.36782644
 20
769.88555294
  0
VERTEX
  8
0
 10
1630.82451363
 20
772.35196551
  0
VERTEX
  8
0
 10
1633.26919848
 20
774.82985908
  0
VERTEX
  8
0
 10
1638.12475263
 20
779.81570889
  0
VERTEX
  8
0
 10
1640.31495373
 20
782.10962260
  0
VERTEX
  8
0
 10
1642.47722168
 20
784.42890809
  0
VERTEX
  8
0
 10
1644.61082106
 20
786.77361051
  0
VERTEX
  8
0
 10
1646.71501644
 20
789.14377498
  0
VERTEX
  8
0
 10
1648.78907240
 20
791.53944664
  0
VERTEX
  8
0
 10
1650.83225351
 20
793.96067061
  0
VERTEX
  8
0
 10
1652.84382436
 20
796.40749203
  0
VERTEX
  8
0
 10
1654.82304951
 20
798.87995604
  0
VERTEX
  8
0
 10
1656.76919354
 20
801.37810776
  0
VERTEX
  8
0
 10
1658.68152102
 20
803.90199232
  0
VERTEX
  8
0
 10
1660.55929654
 20
806.45165486
  0
VERTEX
  8
0
 10
1662.40178466
 20
809.02714052
  0
VERTEX
  8
0
 10
1664.20824997
 20
811.62849441
  0
VERTEX
  8
0
 10
1665.97795703
 20
814.25576168
  0
VERTEX
  8
0
 10
1667.71017042
 20
816.90898745
  0
VERTEX
  8
0
 10
1669.40415473
 20
819.58821686
  0
VERTEX
  8
0
 10
1747.45546583
 20
946.55751090
 42
-0.29882803
  0
VERTEX
  8
0
 10
1767.32223799
 20
955.88266979
  0
VERTEX
  8
0
 10
1767.78193711
 20
955.82794540
  0
VERTEX
  8
0
 10
1768.23381543
 20
955.75143266
  0
VERTEX
  8
0
 10
1768.67737564
 20
955.65370672
  0
VERTEX
  8
0
 10
1769.11212041
 20
955.53534273
  0
VERTEX
  8
0
 10
1769.53755243
 20
955.39691583
  0
VERTEX
  8
0
 10
1769.95317437
 20
955.23900119
  0
VERTEX
  8
0
 10
1770.35848891
 20
955.06217395
  0
VERTEX
  8
0
 10
1770.75299874
 20
954.86700927
  0
VERTEX
  8
0
 10
1771.13620653
 20
954.65408229
  0
VERTEX
  8
0
 10
1771.50761496
 20
954.42396818
  0
VERTEX
  8
0
 10
1771.86672671
 20
954.17724208
  0
VERTEX
  8
0
 10
1772.21304447
 20
953.91447915
  0
VERTEX
  8
0
 10
1772.54607091
 20
953.63625454
  0
VERTEX
  8
0
 10
1772.86530871
 20
953.34314339
  0
VERTEX
  8
0
 10
1773.17026055
 20
953.03572087
  0
VERTEX
  8
0
 10
1773.46042912
 20
952.71456213
  0
VERTEX
  8
0
 10
1773.73531708
 20
952.38024231
  0
VERTEX
  8
0
 10
1773.99442713
 20
952.03333657
  0
VERTEX
  8
0
 10
1774.23726194
 20
951.67442006
  0
VERTEX
  8
0
 10
1774.46332419
 20
951.30406794
  0
VERTEX
  8
0
 10
1774.67211656
 20
950.92285535
  0
VERTEX
  8
0
 10
1774.86314173
 20
950.53135745
  0
VERTEX
  8
0
 10
1775.03590238
 20
950.13014939
  0
VERTEX
  8
0
 10
1775.18990119
 20
949.71980633
  0
VERTEX
  8
0
 10
1775.32464083
 20
949.30090341
  0
VERTEX
  8
0
 10
1775.43962400
 20
948.87401578
  0
VERTEX
  8
0
 10
1775.53435337
 20
948.43971861
  0
VERTEX
  8
0
 10
1775.60833162
 20
947.99858704
  0
VERTEX
  8
0
 10
1775.66106142
 20
947.55119622
  0
VERTEX
  8
0
 10
1775.69204547
 20
947.09812131
  0
VERTEX
  8
0
 10
1775.70078643
 20
946.63993746
  0
VERTEX
  8
0
 10
1775.68678699
 20
946.17721982
  0
VERTEX
  8
0
 10
1771.23091561
 20
938.60113701
  0
VERTEX
  8
0
 10
1771.14036356
 20
937.96453611
  0
VERTEX
  8
0
 10
1771.08267488
 20
937.33092629
  0
VERTEX
  8
0
 10
1771.05720996
 20
936.70120895
  0
VERTEX
  8
0
 10
1771.06332918
 20
936.07628544
  0
VERTEX
  8
0
 10
1771.10039294
 20
935.45705714
  0
VERTEX
  8
0
 10
1771.16776162
 20
934.84442543
  0
VERTEX
  8
0
 10
1771.26479562
 20
934.23929169
  0
VERTEX
  8
0
 10
1771.39085532
 20
933.64255728
  0
VERTEX
  8
0
 10
1771.54530113
 20
933.05512357
  0
VERTEX
  8
0
 10
1771.72749342
 20
932.47789195
  0
VERTEX
  8
0
 10
1771.93679259
 20
931.91176379
  0
VERTEX
  8
0
 10
1772.17255902
 20
931.35764046
  0
VERTEX
  8
0
 10
1772.43415312
 20
930.81642334
  0
VERTEX
  8
0
 10
1772.72093526
 20
930.28901379
  0
VERTEX
  8
0
 10
1773.03226584
 20
929.77631320
  0
VERTEX
  8
0
 10
1773.36750525
 20
929.27922293
  0
VERTEX
  8
0
 10
1773.72601389
 20
928.79864437
  0
VERTEX
  8
0
 10
1774.10715213
 20
928.33547888
  0
VERTEX
  8
0
 10
1774.51028037
 20
927.89062784
  0
VERTEX
  8
0
 10
1774.93475900
 20
927.46499262
  0
VERTEX
  8
0
 10
1775.37994841
 20
927.05947460
  0
VERTEX
  8
0
 10
1775.84520900
 20
926.67497515
  0
VERTEX
  8
0
 10
1776.32990114
 20
926.31239565
  0
VERTEX
  8
0
 10
1776.83338524
 20
925.97263747
  0
VERTEX
  8
0
 10
1777.35502168
 20
925.65660198
  0
VERTEX
  8
0
 10
1777.89417086
 20
925.36519055
  0
VERTEX
  8
0
 10
1778.45019315
 20
925.09930457
  0
VERTEX
  8
0
 10
1779.02244896
 20
924.85984540
  0
VERTEX
  8
0
 10
1779.61029867
 20
924.64771442
  0
VERTEX
  8
0
 10
1780.21310268
 20
924.46381301
  0
VERTEX
  8
0
 10
1780.83022137
 20
924.30904253
  0
VERTEX
  8
0
 10
1781.46101513
 20
924.18430436
  0
VERTEX
  8
0
 10
1781.95365591
 20
924.10957372
  0
VERTEX
  8
0
 10
1782.44470339
 20
924.05454950
  0
VERTEX
  8
0
 10
1782.93374169
 20
924.01893877
  0
VERTEX
  8
0
 10
1783.42035494
 20
924.00244861
  0
VERTEX
  8
0
 10
1783.90412724
 20
924.00478607
  0
VERTEX
  8
0
 10
1784.38464272
 20
924.02565822
  0
VERTEX
  8
0
 10
1784.86148549
 20
924.06477213
  0
VERTEX
  8
0
 10
1785.33423966
 20
924.12183488
  0
VERTEX
  8
0
 10
1785.80248935
 20
924.19655351
  0
VERTEX
  8
0
 10
1786.26581868
 20
924.28863512
  0
VERTEX
  8
0
 10
1786.72381176
 20
924.39778675
  0
VERTEX
  8
0
 10
1787.17605271
 20
924.52371548
  0
VERTEX
  8
0
 10
1787.62212564
 20
924.66612838
  0
VERTEX
  8
0
 10
1788.06161468
 20
924.82473251
  0
VERTEX
  8
0
 10
1788.49410393
 20
924.99923494
  0
VERTEX
  8
0
 10
1788.91917752
 20
925.18934274
  0
SEQEND
  0
POLYLINE
  8
METAL_FRAME
 62
256
 66
   1
 39
0.000000
 70
    1
  0
VERTEX
  8
0
 10
1629.26080562
 20
649.94109191
 42
-0.41421356
  0
VERTEX
  8
0
 10
1652.18552694
 20
677.77914416
 42
-0.41421356
  0
VERTEX
  8
0
 10
1680.02357918
 20
654.85442284
  0
VERTEX
  8
0
 10
1682.95364048
 20
624.58208000
 42
-0.41421356
  0
VERTEX
  8
0
 10
1660.02891916
 20
596.74402776
 42
-0.41421356
  0
VERTEX
  8
0
 10
1632.19086692
 20
619.66874908
  0
VERTEX
  8
0
 10
1629.26080562
 20
649.94109191
  0
SEQEND
  0
POLYLINE
  8
METAL_FRAME
 62
256
 66
   1
 39
0.000000
 70
    1
  0
VERTEX
  8
0
 10
60.89378390
 20
896.03531925
  0
VERTEX
  8
0
 10
61.85236311
 20
906.07542137
  0
VERTEX
  8
0
 10
471.69546520
 20
903.39861143
  0
VERTEX
  8
0
 10
816.67978809
 20
906.68752695
 42
-0.68627863
  0
VERTEX
  8
0
 10
822.41024055
 20
837.60807743
  0
VERTEX
  8
0
 10
500.32716998
 20
791.22173450
  0
VERTEX
  8
0
 10
498.26798361
 20
790.90148476
  0
VERTEX
  8
0
 10
496.21653049
 20
790.53493445
  0
VERTEX
  8
0
 10
494.17380868
 20
790.12239907
  0
VERTEX
  8
0
 10
492.14081627
 20
789.66419410
  0
VERTEX
  8
0
 10
490.11855135
 20
789.16063504
  0
VERTEX
  8
0
 10
488.10801200
 20
788.61203737
  0
VERTEX
  8
0
 10
486.11019630
 20
788.01871659
  0
VERTEX
  8
0
 10
484.12610233
 20
787.38098819
  0
VERTEX
  8
0
 10
482.15672819
 20
786.69916766
  0
VERTEX
  8
0
 10
480.20307194
 20
785.97357049
  0
VERTEX
  8
0
 10
478.26613169
 20
785.20451216
  0
VERTEX
  8
0
 10
476.34690550
 20
784.39230818
  0
VERTEX
  8
0
 10
474.44639146
 20
783.53727402
  0
VERTEX
  8
0
 10
472.56558766
 20
782.63972519
  0
VERTEX
  8
0
 10
470.70549218
 20
781.69997717
  0
VERTEX
  8
0
 10
468.86710310
 20
780.71834545
  0
VERTEX
  8
0
 10
467.20192060
 20
779.78225902
  0
VERTEX
  8
0
 10
465.55642329
 20
778.81204841
  0
VERTEX
  8
0
 10
463.93124694
 20
777.80820109
  0
VERTEX
  8
0
 10
462.32702731
 20
776.77120452
  0
VERTEX
  8
0
 10
460.74440013
 20
775.70154617
  0
VERTEX
  8
0
 10
459.18400117
 20
774.59971348
  0
VERTEX
  8
0
 10
457.64646618
 20
773.46619393
  0
VERTEX
  8
0
 10
456.13243090
 20
772.30147497
  0
VERTEX
  8
0
 10
454.64253110
 20
771.10604407
  0
VERTEX
  8
0
 10
453.17740252
 20
769.88038870
  0
VERTEX
  8
0
 10
451.73768092
 20
768.62499630
  0
VERTEX
  8
0
 10
450.32400205
 20
767.34035434
  0
VERTEX
  8
0
 10
448.93700166
 20
766.02695029
  0
VERTEX
  8
0
 10
447.57731550
 20
764.68527160
  0
VERTEX
  8
0
 10
446.24557933
 20
763.31580574
  0
VERTEX
  8
0
 10
444.94242890
 20
761.91904017
  0
VERTEX
  8
0
 10
443.70120605
 20
760.53307854
  0
VERTEX
  8
0
 10
442.48794739
 20
759.12258427
  0
VERTEX
  8
0
 10
441.30309274
 20
757.68815516
  0
VERTEX
  8
0
 10
440.14708193
 20
756.23038899
  0
VERTEX
  8
0
 10
439.02035476
 20
754.74988357
  0
VERTEX
  8
0
 10
437.92335106
 20
753.24723668
  0
VERTEX
  8
0
 10
436.85651066
 20
751.72304611
  0
VERTEX
  8
0
 10
435.82027336
 20
750.17790966
  0
VERTEX
  8
0
 10
434.81507900
 20
748.61242511
  0
VERTEX
  8
0
 10
433.84136739
 20
747.02719027
  0
VERTEX
  8
0
 10
432.89957835
 20
745.42280292
  0
VERTEX
  8
0
 10
431.99015170
 20
743.79986085
  0
VERTEX
  8
0
 10
431.11352726
 20
742.15896185
  0
VERTEX
  8
0
 10
430.27014486
 20
740.50070373
  0
VERTEX
  8
0
 10
429.46044430
 20
738.82568426
  0
VERTEX
  8
0
 10
428.68486542
 20
737.13450125
  0
VERTEX
  8
0
 10
428.01085615
 20
735.58700596
  0
VERTEX
  8
0
 10
427.36491310
 20
734.02759683
  0
VERTEX
  8
0
 10
426.74721614
 20
732.45679387
  0
VERTEX
  8
0
 10
426.15794516
 20
730.87511711
  0
VERTEX
  8
0
 10
425.59728004
 20
729.28308656
  0
VERTEX
  8
0
 10
425.06540067
 20
727.68122226
  0
VERTEX
  8
0
 10
424.56248692
 20
726.07004421
  0
VERTEX
  8
0
 10
424.08871868
 20
724.45007246
  0
VERTEX
  8
0
 10
423.64427584
 20
722.82182701
  0
VERTEX
  8
0
 10
423.22933828
 20
721.18582789
  0
VERTEX
  8
0
 10
422.84408587
 20
719.54259513
  0
VERTEX
  8
0
 10
422.48869851
 20
717.89264874
  0
VERTEX
  8
0
 10
422.16335607
 20
716.23650875
  0
VERTEX
  8
0
 10
421.86823844
 20
714.57469517
  0
VERTEX
  8
0
 10
421.60352550
 20
712.90772804
  0
VERTEX
  8
0
 10
421.36939713
 20
711.23612738
  0
VERTEX
  8
0
 10
411.96244693
 20
639.33135721
  0
VERTEX
  8
0
 10
402.55406300
 20
567.42618424
  0
VERTEX
  8
0
 10
393.15506433
 20
495.51987635
  0
VERTEX
  8
0
 10
388.44406534
 20
459.56956323
  0
VERTEX
  8
0
 10
382.17244012
 20
411.63309227
  0
VERTEX
  8
0
 10
381.59233561
 20
410.83104759
  0
VERTEX
  8
0
 10
380.99915598
 20
410.03881716
  0
VERTEX
  8
0
 10
380.39310369
 20
409.25654742
  0
VERTEX
  8
0
 10
379.77438124
 20
408.48438481
  0
VERTEX
  8
0
 10
379.14319109
 20
407.72247577
  0
VERTEX
  8
0
 10
378.49973572
 20
406.97096673
  0
VERTEX
  8
0
 10
377.84421762
 20
406.23000414
  0
VERTEX
  8
0
 10
377.17683926
 20
405.49973444
  0
VERTEX
  8
0
 10
376.49780312
 20
404.78030406
  0
VERTEX
  8
0
 10
375.80731167
 20
404.07185945
  0
VERTEX
  8
0
 10
375.10556740
 20
403.37454704
  0
VERTEX
  8
0
 10
374.39277278
 20
402.68851328
  0
VERTEX
  8
0
 10
373.66913030
 20
402.01390461
  0
VERTEX
  8
0
 10
372.93484242
 20
401.35086746
  0
VERTEX
  8
0
 10
372.19011163
 20
400.69954827
  0
VERTEX
  8
0
 10
371.43514041
 20
400.06009349
  0
VERTEX
  8
0
 10
370.67013123
 20
399.43264955
  0
VERTEX
  8
0
 10
369.89528657
 20
398.81736289
  0
VERTEX
  8
0
 10
369.11080891
 20
398.21437996
  0
VERTEX
  8
0
 10
368.31690073
 20
397.62384719
  0
VERTEX
  8
0
 10
367.51376451
 20
397.04591102
  0
VERTEX
  8
0
 10
366.70160272
 20
396.48071789
  0
VERTEX
  8
0
 10
365.88061785
 20
395.92841425
  0
VERTEX
  8
0
 10
365.05101236
 20
395.38914652
  0
VERTEX
  8
0
 10
364.21298874
 20
394.86306116
  0
VERTEX
  8
0
 10
363.36674947
 20
394.35030460
  0
VERTEX
  8
0
 10
362.51249703
 20
393.85102328
  0
VERTEX
  8
0
 10
361.65043389
 20
393.36536363
  0
VERTEX
  8
0
 10
360.78076252
 20
392.89347211
  0
VERTEX
  8
0
 10
359.90368542
 20
392.43549515
  0
VERTEX
  8
0
 10
359.01940506
 20
391.99157918
  0
VERTEX
  8
0
 10
358.12812391
 20
391.56187065
  0
VERTEX
  8
0
 10
357.09551895
 20
391.08608581
  0
VERTEX
  8
0
 10
356.05422476
 20
390.62990203
  0
VERTEX
  8
0
 10
355.00461954
 20
390.19337214
  0
VERTEX
  8
0
 10
353.94708151
 20
389.77654898
  0
VERTEX
  8
0
 10
352.88198886
 20
389.37948539
  0
VERTEX
  8
0
 10
351.80971981
 20
389.00223419
  0
VERTEX
  8
0
 10
350.73065256
 20
388.64484822
  0
VERTEX
  8
0
 10
349.64516533
 20
388.30738031
  0
VERTEX
  8
0
 10
348.55363632
 20
387.98988330
  0
VERTEX
  8
0
 10
347.45644374
 20
387.69241002
  0
VERTEX
  8
0
 10
346.35396581
 20
387.41501330
  0
VERTEX
  8
0
 10
345.24658072
 20
387.15774598
  0
VERTEX
  8
0
 10
344.13466668
 20
386.92066089
  0
VERTEX
  8
0
 10
343.01860191
 20
386.70381086
  0
VERTEX
  8
0
 10
341.89876462
 20
386.50724873
  0
VERTEX
  8
0
 10
340.77553300
 20
386.33102733
  0
VERTEX
  8
0
 10
339.64928528
 20
386.17519950
  0
VERTEX
  8
0
 10
338.52039965
 20
386.03981807
  0
VERTEX
  8
0
 10
337.38925433
 20
385.92493587
  0
VERTEX
  8
0
 10
336.25622752
 20
385.83060573
  0
VERTEX
  8
0
 10
335.12169744
 20
385.75688049
  0
VERTEX
  8
0
 10
333.98604229
 20
385.70381299
  0
VERTEX
  8
0
 10
332.84964028
 20
385.67145605
  0
VERTEX
  8
0
 10
331.71286961
 20
385.65986252
  0
VERTEX
  8
0
 10
330.57610851
 20
385.66908521
  0
VERTEX
  8
0
 10
329.43973516
 20
385.69917697
  0
VERTEX
  8
0
 10
328.30412780
 20
385.75019064
  0
VERTEX
  8
0
 10
327.16966461
 20
385.82217903
  0
VERTEX
  8
0
 10
326.03672381
 20
385.91519500
  0
VERTEX
  8
0
 10
324.90568361
 20
386.02929137
  0
VERTEX
  8
0
 10
323.77692222
 20
386.16452097
  0
VERTEX
  8
0
 10
322.65081785
 20
386.32093664
  0
VERTEX
  8
0
 10
320.75954842
 20
386.63206701
  0
VERTEX
  8
0
 10
318.87894432
 20
387.00185031
  0
VERTEX
  8
0
 10
317.01070077
 20
387.42963933
  0
VERTEX
  8
0
 10
315.15651299
 20
387.91478686
  0
VERTEX
  8
0
 10
313.31807620
 20
388.45664570
  0
VERTEX
  8
0
 10
311.49708562
 20
389.05456864
  0
VERTEX
  8
0
 10
309.69523647
 20
389.70790846
  0
VERTEX
  8
0
 10
307.91422397
 20
390.41601797
  0
VERTEX
  8
0
 10
306.15574335
 20
391.17824994
  0
VERTEX
  8
0
 10
304.42148983
 20
391.99395717
  0
VERTEX
  8
0
 10
302.71315862
 20
392.86249246
  0
VERTEX
  8
0
 10
301.03244494
 20
393.78320859
  0
VERTEX
  8
0
 10
299.38104403
 20
394.75545836
  0
VERTEX
  8
0
 10
297.76065109
 20
395.77859456
  0
VERTEX
  8
0
 10
296.96261237
 20
396.30904281
  0
VERTEX
  8
0
 10
296.17296136
 20
396.85196997
  0
VERTEX
  8
0
 10
295.39190995
 20
397.40729513
  0
VERTEX
  8
0
 10
294.61967004
 20
397.97493740
  0
VERTEX
  8
0
 10
293.88854994
 20
398.52990181
 42
-0.53724555
  0
VERTEX
  8
0
 10
294.36809288
 20
405.18322305
 42
0.86490825
  0
VERTEX
  8
0
 10
277.58302414
 20
448.68804432
  0
VERTEX
  8
0
 10
287.26221805
 20
526.31325431
  0
VERTEX
  8
0
 10
295.88717795
 20
595.48676727
  0
VERTEX
  8
0
 10
295.65168159
 20
597.59210823
  0
VERTEX
  8
0
 10
295.39251186
 20
599.69377395
  0
VERTEX
  8
0
 10
295.10957611
 20
601.79147505
  0
VERTEX
  8
0
 10
294.80278170
 20
603.88492214
  0
VERTEX
  8
0
 10
294.47203596
 20
605.97382585
  0
VERTEX
  8
0
 10
294.11724625
 20
608.05789680
  0
VERTEX
  8
0
 10
293.73831990
 20
610.13684560
  0
VERTEX
  8
0
 10
293.33516428
 20
612.21038288
  0
VERTEX
  8
0
 10
292.90768672
 20
614.27821926
  0
VERTEX
  8
0
 10
292.45579458
 20
616.34006535
  0
VERTEX
  8
0
 10
291.97939520
 20
618.39563178
  0
VERTEX
  8
0
 10
291.47839592
 20
620.44462917
  0
VERTEX
  8
0
 10
290.95270410
 20
622.48676813
  0
VERTEX
  8
0
 10
290.40222708
 20
624.52175929
  0
VERTEX
  8
0
 10
289.82687220
 20
626.54931327
  0
VERTEX
  8
0
 10
289.22654683
 20
628.56914068
  0
VERTEX
  8
0
 10
288.60115829
 20
630.58095215
  0
VERTEX
  8
0
 10
287.95061395
 20
632.58445829
  0
VERTEX
  8
0
 10
287.27482114
 20
634.57936973
  0
VERTEX
  8
0
 10
286.57368722
 20
636.56539709
  0
VERTEX
  8
0
 10
285.84711953
 20
638.54225098
  0
VERTEX
  8
0
 10
285.09502541
 20
640.50964202
  0
VERTEX
  8
0
 10
284.31731222
 20
642.46728085
  0
VERTEX
  8
0
 10
283.51388731
 20
644.41487807
  0
VERTEX
  8
0
 10
282.68465801
 20
646.35214430
  0
VERTEX
  8
0
 10
281.82953168
 20
648.27879017
  0
VERTEX
  8
0
 10
280.94841566
 20
650.19452629
  0
VERTEX
  8
0
 10
280.04121730
 20
652.09906329
  0
VERTEX
  8
0
 10
279.10784396
 20
653.99211179
  0
VERTEX
  8
0
 10
278.14820296
 20
655.87338240
  0
VERTEX
  8
0
 10
277.16220167
 20
657.74258575
  0
VERTEX
  8
0
 10
276.14974743
 20
659.59943245
  0
VERTEX
  8
0
 10
274.44941195
 20
662.61461960
  0
VERTEX
  8
0
 10
272.70693279
 20
665.60246411
  0
VERTEX
  8
0
 10
270.92340504
 20
668.56351384
  0
VERTEX
  8
0
 10
269.09992379
 20
671.49831666
  0
VERTEX
  8
0
 10
267.23758414
 20
674.40742044
  0
VERTEX
  8
0
 10
265.33748119
 20
677.29137304
  0
VERTEX
  8
0
 10
263.40071002
 20
680.15072234
  0
VERTEX
  8
0
 10
261.42836575
 20
682.98601619
  0
VERTEX
  8
0
 10
259.42154346
 20
685.79780248
  0
VERTEX
  8
0
 10
257.38133824
 20
688.58662906
  0
VERTEX
  8
0
 10
255.30884520
 20
691.35304381
  0
VERTEX
  8
0
 10
253.20515943
 20
694.09759459
  0
VERTEX
  8
0
 10
251.07137602
 20
696.82082928
  0
VERTEX
  8
0
 10
248.90859008
 20
699.52329574
  0
VERTEX
  8
0
 10
246.71789669
 20
702.20554183
  0
VERTEX
  8
0
 10
244.50039095
 20
704.86811543
  0
VERTEX
  8
0
 10
242.25716796
 20
707.51156441
  0
VERTEX
  8
0
 10
239.98932281
 20
710.13643663
  0
VERTEX
  8
0
 10
237.69795060
 20
712.74327996
  0
VERTEX
  8
0
 10
235.38414642
 20
715.33264226
  0
VERTEX
  8
0
 10
233.04900538
 20
717.90507142
  0
VERTEX
  8
0
 10
230.69362255
 20
720.46111529
  0
VERTEX
  8
0
 10
228.31909305
 20
723.00132175
  0
VERTEX
  8
0
 10
225.92651197
 20
725.52623866
  0
VERTEX
  8
0
 10
223.51697440
 20
728.03641388
  0
VERTEX
  8
0
 10
221.09157543
 20
730.53239530
  0
VERTEX
  8
0
 10
218.65141017
 20
733.01473077
  0
VERTEX
  8
0
 10
216.19757370
 20
735.48396817
  0
VERTEX
  8
0
 10
213.73116113
 20
737.94065536
  0
VERTEX
  8
0
 10
211.25326756
 20
740.38534021
  0
VERTEX
  8
0
 10
206.26741775
 20
745.24089436
  0
VERTEX
  8
0
 10
203.97350404
 20
747.43109546
  0
VERTEX
  8
0
 10
201.65421855
 20
749.59336341
  0
VERTEX
  8
0
 10
199.30951613
 20
751.72696279
  0
VERTEX
  8
0
 10
196.93935166
 20
753.83115817
  0
VERTEX
  8
0
 10
194.54368000
 20
755.90521413
  0
VERTEX
  8
0
 10
192.12245603
 20
757.94839524
  0
VERTEX
  8
0
 10
189.67563461
 20
759.95996609
  0
VERTEX
  8
0
 10
187.20317060
 20
761.93919124
  0
VERTEX
  8
0
 10
184.70501888
 20
763.88533527
  0
VERTEX
  8
0
 10
182.18113432
 20
765.79766275
  0
VERTEX
  8
0
 10
179.63147178
 20
767.67543827
  0
VERTEX
  8
0
 10
177.05598612
 20
769.51792639
  0
VERTEX
  8
0
 10
174.45463223
 20
771.32439170
  0
VERTEX
  8
0
 10
171.82736496
 20
773.09409876
  0
VERTEX
  8
0
 10
169.17413919
 20
774.82631215
  0
VERTEX
  8
0
 10
166.49490978
 20
776.52029646
  0
VERTEX
  8
0
 10
39.52561574
 20
854.57160756
 42
-0.29882803
  0
VERTEX
  8
0
 10
30.20045685
 20
874.43837972
  0
VERTEX
  8
0
 10
30.25518124
 20
874.89807884
  0
VERTEX
  8
0
 10
30.33169398
 20
875.34995716
  0
VERTEX
  8
0
 10
30.42941992
 20
875.79351737
  0
VERTEX
  8
0
 10
30.54778391
 20
876.22826214
  0
VERTEX
  8
0
 10
30.68621081
 20
876.65369416
  0
VERTEX
  8
0
 10
30.84412545
 20
877.06931610
  0
VERTEX
  8
0
 10
31.02095269
 20
877.47463064
  0
VERTEX
  8
0
 10
31.21611737
 20
877.86914047
  0
VERTEX
  8
0
 10
31.42904435
 20
878.25234826
  0
VERTEX
  8
0
 10
31.65915846
 20
878.62375669
  0
VERTEX
  8
0
 10
31.90588456
 20
878.98286844
  0
VERTEX
  8
0
 10
32.16864749
 20
879.32918620
  0
VERTEX
  8
0
 10
32.44687210
 20
879.66221264
  0
VERTEX
  8
0
 10
32.73998325
 20
879.98145044
  0
VERTEX
  8
0
 10
33.04740577
 20
880.28640228
  0
VERTEX
  8
0
 10
33.36856451
 20
880.57657085
  0
VERTEX
  8
0
 10
33.70288433
 20
880.85145881
  0
VERTEX
  8
0
 10
34.04979007
 20
881.11056886
  0
VERTEX
  8
0
 10
34.40870658
 20
881.35340367
  0
VERTEX
  8
0
 10
34.77905870
 20
881.57946592
  0
VERTEX
  8
0
 10
35.16027129
 20
881.78825829
  0
VERTEX
  8
0
 10
35.55176919
 20
881.97928346
  0
VERTEX
  8
0
 10
35.95297725
 20
882.15204411
  0
VERTEX
  8
0
 10
36.36332031
 20
882.30604292
  0
VERTEX
  8
0
 10
36.78222323
 20
882.44078256
  0
VERTEX
  8
0
 10
37.20911086
 20
882.55576573
  0
VERTEX
  8
0
 10
37.64340803
 20
882.65049510
  0
VERTEX
  8
0
 10
38.08453960
 20
882.72447335
  0
VERTEX
  8
0
 10
38.53193042
 20
882.77720315
  0
VERTEX
  8
0
 10
38.98500533
 20
882.80818720
  0
VERTEX
  8
0
 10
39.44318918
 20
882.81692816
  0
VERTEX
  8
0
 10
39.90590682
 20
882.80292872
  0
VERTEX
  8
0
 10
47.48198963
 20
878.34705734
  0
VERTEX
  8
0
 10
48.11859053
 20
878.25650529
  0
VERTEX
  8
0
 10
48.75220035
 20
878.19881661
  0
VERTEX
  8
0
 10
49.38191769
 20
878.17335169
  0
VERTEX
  8
0
 10
50.00684120
 20
878.17947091
  0
VERTEX
  8
0
 10
50.62606950
 20
878.21653467
  0
VERTEX
  8
0
 10
51.23870121
 20
878.28390335
  0
VERTEX
  8
0
 10
51.84383495
 20
878.38093735
  0
VERTEX
  8
0
 10
52.44056936
 20
878.50699705
  0
VERTEX
  8
0
 10
53.02800307
 20
878.66144286
  0
VERTEX
  8
0
 10
53.60523469
 20
878.84363515
  0
VERTEX
  8
0
 10
54.17136285
 20
879.05293432
  0
VERTEX
  8
0
 10
54.72548618
 20
879.28870075
  0
VERTEX
  8
0
 10
55.26670330
 20
879.55029485
  0
VERTEX
  8
0
 10
55.79411285
 20
879.83707699
  0
VERTEX
  8
0
 10
56.30681344
 20
880.14840757
  0
VERTEX
  8
0
 10
56.80390371
 20
880.48364698
  0
VERTEX
  8
0
 10
57.28448227
 20
880.84215562
  0
VERTEX
  8
0
 10
57.74764776
 20
881.22329386
  0
VERTEX
  8
0
 10
58.19249880
 20
881.62642210
  0
VERTEX
  8
0
 10
58.61813402
 20
882.05090073
  0
VERTEX
  8
0
 10
59.02365204
 20
882.49609014
  0
VERTEX
  8
0
 10
59.40815149
 20
882.96135073
  0
VERTEX
  8
0
 10
59.77073099
 20
883.44604287
  0
VERTEX
  8
0
 10
60.11048917
 20
883.94952697
  0
VERTEX
  8
0
 10
60.42652466
 20
884.47116341
  0
VERTEX
  8
0
 10
60.71793609
 20
885.01031259
  0
VERTEX
  8
0
 10
60.98382207
 20
885.56633488
  0
VERTEX
  8
0
 10
61.22328124
 20
886.13859069
  0
VERTEX
  8
0
 10
61.43541222
 20
886.72644040
  0
VERTEX
  8
0
 10
61.61931363
 20
887.32924441
  0
VERTEX
  8
0
 10
61.77408411
 20
887.94636310
  0
VERTEX
  8
0
 10
61.89882228
 20
888.57715686
  0
VERTEX
  8
0
 10
61.97355292
 20
889.06979764
  0
VERTEX
  8
0
 10
62.02857714
 20
889.56084512
  0
VERTEX
  8
0
 10
62.06418787
 20
890.04988342
  0
VERTEX
  8
0
 10
62.08067803
 20
890.53649667
  0
VERTEX
  8
0
 10
62.07834057
 20
891.02026897
  0
VERTEX
  8
0
 10
62.05746842
 20
891.50078445
  0
VERTEX
  8
0
 10
62.01835451
 20
891.97762722
  0
VERTEX
  8
0
 10
61.96129176
 20
892.45038139
  0
VERTEX
  8
0
 10
61.88657313
 20
892.91863108
  0
VERTEX
  8
0
 10
61.79449152
 20
893.38196041
  0
VERTEX
  8
0
 10
61.68533989
 20
893.83995349
  0
VERTEX
  8
0
 10
61.55941116
 20
894.29219444
  0
VERTEX
  8
0
 10
61.41699826
 20
894.73826737
  0
VERTEX
  8
0
 10
61.25839413
 20
895.17775641
  0
VERTEX
  8
0
 10
61.08389170
 20
895.61024566
  0
VERTEX
  8
0
 10
60.89378390
 20
896.03531925
  0
SEQEND
  0
POLYLINE
  8
METAL_FRAME
 62
256
 66
   1
 39
0.000000
 70
    1
  0
VERTEX
  8
0
 10
336.14203473
 20
736.37694735
 42
-0.41421356
  0
VERTEX
  8
0
 10
308.30398249
 20
759.30166867
 42
-0.41421356
  0
VERTEX
  8
0
 10
331.22870380
 20
787.13972091
  0
VERTEX
  8
0
 10
361.50104664
 20
790.06978221
 42
-0.41421356
  0
VERTEX
  8
0
 10
389.33909888
 20
767.14506089
 42
-0.41421356
  0
VERTEX
  8
0
 10
366.41437756
 20
739.30700865
  0
VERTEX
  8
0
 10
336.14203473
 20
736.37694735
  0
SEQEND
  0
POLYLINE
  8
METAL_FRAME
 62
256
 66
   1
 39
0.000000
 70
    1
  0
VERTEX
  8
0
 10
778.72524143
 20
1170.73409549
  0
VERTEX
  8
0
 10
783.53059868
 20
1179.60151148
  0
VERTEX
  8
0
 10
1159.74725034
 20
1016.99903716
  0
VERTEX
  8
0
 10
1478.59207559
 20
885.23038606
 42
-0.68627863
  0
VERTEX
  8
0
 10
1456.87549363
 20
819.40335135
  0
VERTEX
  8
0
 10
1142.27187584
 20
902.55237918
  0
VERTEX
  8
0
 10
1140.25125325
 20
903.06217595
  0
VERTEX
  8
0
 10
1138.21965808
 20
903.52633121
  0
VERTEX
  8
0
 10
1136.17813232
 20
903.94474539
  0
VERTEX
  8
0
 10
1134.12771800
 20
904.31731891
  0
VERTEX
  8
0
 10
1132.06945712
 20
904.64395220
  0
VERTEX
  8
0
 10
1130.00439171
 20
904.92454569
  0
VERTEX
  8
0
 10
1127.93356376
 20
905.15899982
  0
VERTEX
  8
0
 10
1125.85801529
 20
905.34721501
  0
VERTEX
  8
0
 10
1123.77878833
 20
905.48909168
  0
VERTEX
  8
0
 10
1121.69692487
 20
905.58453027
  0
VERTEX
  8
0
 10
1119.61346694
 20
905.63343120
  0
VERTEX
  8
0
 10
1117.52945654
 20
905.63569491
  0
VERTEX
  8
0
 10
1115.44593568
 20
905.59122181
  0
VERTEX
  8
0
 10
1113.36394639
 20
905.49991235
  0
VERTEX
  8
0
 10
1111.28453067
 20
905.36166694
  0
VERTEX
  8
0
 10
1109.20873053
 20
905.17638602
  0
VERTEX
  8
0
 10
1107.31016385
 20
904.96535255
  0
VERTEX
  8
0
 10
1105.41638410
 20
904.71521600
  0
VERTEX
  8
0
 10
1103.52816699
 20
904.42617666
  0
VERTEX
  8
0
 10
1101.64628819
 20
904.09843483
  0
VERTEX
  8
0
 10
1099.77152338
 20
903.73219083
  0
VERTEX
  8
0
 10
1097.90464823
 20
903.32764494
  0
VERTEX
  8
0
 10
1096.04643844
 20
902.88499747
  0
VERTEX
  8
0
 10
1094.19766966
 20
902.40444873
  0
VERTEX
  8
0
 10
1092.35911760
 20
901.88619901
  0
VERTEX
  8
0
 10
1090.53155792
 20
901.33044864
  0
VERTEX
  8
0
 10
1088.71576631
 20
900.73739789
  0
VERTEX
  8
0
 10
1086.91251845
 20
900.10724707
  0
VERTEX
  8
0
 10
1085.12259001
 20
899.44019649
  0
VERTEX
  8
0
 10
1083.34675667
 20
898.73644646
  0
VERTEX
  8
0
 10
1081.58579412
 20
897.99619726
  0
VERTEX
  8
0
 10
1079.84047804
 20
897.21964921
  0
VERTEX
  8
0
 10
1078.15638803
 20
896.42884921
  0
VERTEX
  8
0
 10
1076.48845353
 20
895.60454031
  0
VERTEX
  8
0
 10
1074.83731297
 20
894.74710095
  0
VERTEX
  8
0
 10
1073.20360479
 20
893.85690952
  0
VERTEX
  8
0
 10
1071.58796740
 20
892.93434448
  0
VERTEX
  8
0
 10
1069.99103926
 20
891.97978422
  0
VERTEX
  8
0
 10
1068.41345879
 20
890.99360715
  0
VERTEX
  8
0
 10
1066.85586442
 20
889.97619172
  0
VERTEX
  8
0
 10
1065.31889459
 20
888.92791632
  0
VERTEX
  8
0
 10
1063.80318773
 20
887.84915939
  0
VERTEX
  8
0
 10
1062.30938226
 20
886.74029935
  0
VERTEX
  8
0
 10
1060.83811663
 20
885.60171459
  0
VERTEX
  8
0
 10
1059.39002926
 20
884.43378356
  0
VERTEX
  8
0
 10
1057.96575860
 20
883.23688467
  0
VERTEX
  8
0
 10
1056.56594306
 20
882.01139633
  0
VERTEX
  8
0
 10
1055.19122109
 20
880.75769697
  0
VERTEX
  8
0
 10
1053.96613771
 20
879.59657645
  0
VERTEX
  8
0
 10
1052.76223430
 20
878.41352283
  0
VERTEX
  8
0
 10
1051.57987964
 20
877.20894451
  0
VERTEX
  8
0
 10
1050.41944250
 20
875.98324990
  0
VERTEX
  8
0
 10
1049.28129164
 20
874.73684736
  0
VERTEX
  8
0
 10
1048.16579585
 20
873.47014533
  0
VERTEX
  8
0
 10
1047.07332389
 20
872.18355217
  0
VERTEX
  8
0
 10
1046.00424453
 20
870.87747631
  0
VERTEX
  8
0
 10
1044.95892656
 20
869.55232612
  0
VERTEX
  8
0
 10
1043.93773874
 20
868.20851001
  0
VERTEX
  8
0
 10
1042.94104984
 20
866.84643639
  0
VERTEX
  8
0
 10
1041.96922863
 20
865.46651364
  0
VERTEX
  8
0
 10
1041.02264389
 20
864.06915016
  0
VERTEX
  8
0
 10
1040.10166438
 20
862.65475433
  0
VERTEX
  8
0
 10
1039.20665889
 20
861.22373459
  0
VERTEX
  8
0
 10
1038.33799618
 20
859.77649931
  0
VERTEX
  8
0
 10
1001.58342087
 20
797.26339765
  0
VERTEX
  8
0
 10
964.82736842
 20
734.75048541
  0
VERTEX
  8
0
 10
928.07951170
 20
672.23286136
  0
VERTEX
  8
0
 10
909.69610785
 20
640.98115760
  0
VERTEX
  8
0
 10
885.19277500
 20
599.30592263
  0
VERTEX
  8
0
 10
884.34540216
 20
598.79430150
  0
VERTEX
  8
0
 10
883.48982834
 20
598.29682329
  0
VERTEX
  8
0
 10
882.62629713
 20
597.81354369
  0
VERTEX
  8
0
 10
881.75505214
 20
597.34451838
  0
VERTEX
  8
0
 10
880.87633697
 20
596.88980305
  0
VERTEX
  8
0
 10
879.99039520
 20
596.44945337
  0
VERTEX
  8
0
 10
879.09747046
 20
596.02352504
  0
VERTEX
  8
0
 10
878.19780634
 20
595.61207374
  0
VERTEX
  8
0
 10
877.29164643
 20
595.21515514
  0
VERTEX
  8
0
 10
876.37923434
 20
594.83282494
  0
VERTEX
  8
0
 10
875.46081367
 20
594.46513881
  0
VERTEX
  8
0
 10
874.53662801
 20
594.11215245
  0
VERTEX
  8
0
 10
873.60692099
 20
593.77392154
  0
VERTEX
  8
0
 10
872.67193618
 20
593.45050176
  0
VERTEX
  8
0
 10
871.73191719
 20
593.14194878
  0
VERTEX
  8
0
 10
870.78710763
 20
592.84831831
  0
VERTEX
  8
0
 10
869.83775109
 20
592.56966602
  0
VERTEX
  8
0
 10
868.88409117
 20
592.30604759
  0
VERTEX
  8
0
 10
867.92637147
 20
592.05751872
  0
VERTEX
  8
0
 10
866.96483561
 20
591.82413508
  0
VERTEX
  8
0
 10
865.99972717
 20
591.60595235
  0
VERTEX
  8
0
 10
865.03128975
 20
591.40302622
  0
VERTEX
  8
0
 10
864.05976697
 20
591.21541239
  0
VERTEX
  8
0
 10
863.08540240
 20
591.04316651
  0
VERTEX
  8
0
 10
862.10843966
 20
590.88634430
  0
VERTEX
  8
0
 10
861.12912236
 20
590.74500142
  0
VERTEX
  8
0
 10
860.14769409
 20
590.61919357
  0
VERTEX
  8
0
 10
859.16439844
 20
590.50897640
  0
VERTEX
  8
0
 10
858.17947901
 20
590.41440565
  0
VERTEX
  8
0
 10
857.19317943
 20
590.33553696
  0
VERTEX
  8
0
 10
856.20574328
 20
590.27242601
  0
VERTEX
  8
0
 10
855.21741416
 20
590.22512852
  0
VERTEX
  8
0
 10
854.08099233
 20
590.19063716
  0
VERTEX
  8
0
 10
852.94423077
 20
590.17758383
  0
VERTEX
  8
0
 10
851.80749826
 20
590.18586938
  0
VERTEX
  8
0
 10
850.67116359
 20
590.21539467
  0
VERTEX
  8
0
 10
849.53559553
 20
590.26606056
  0
VERTEX
  8
0
 10
848.40116288
 20
590.33776790
  0
VERTEX
  8
0
 10
847.26823441
 20
590.43041754
  0
VERTEX
  8
0
 10
846.13717893
 20
590.54391034
  0
VERTEX
  8
0
 10
845.00836521
 20
590.67814716
  0
VERTEX
  8
0
 10
843.88216205
 20
590.83302886
  0
VERTEX
  8
0
 10
842.75893823
 20
591.00845628
  0
VERTEX
  8
0
 10
841.63906253
 20
591.20433029
  0
VERTEX
  8
0
 10
840.52290373
 20
591.42055174
  0
VERTEX
  8
0
 10
839.41083064
 20
591.65702148
  0
VERTEX
  8
0
 10
838.30321204
 20
591.91364038
  0
VERTEX
  8
0
 10
837.20041669
 20
592.19030928
  0
VERTEX
  8
0
 10
836.10281342
 20
592.48692905
  0
VERTEX
  8
0
 10
835.01077098
 20
592.80340054
  0
VERTEX
  8
0
 10
833.92465817
 20
593.13962461
  0
VERTEX
  8
0
 10
832.84484377
 20
593.49550210
  0
VERTEX
  8
0
 10
831.77169658
 20
593.87093388
  0
VERTEX
  8
0
 10
830.70558537
 20
594.26582080
  0
VERTEX
  8
0
 10
829.64687895
 20
594.68006372
  0
VERTEX
  8
0
 10
828.59594607
 20
595.11356351
  0
VERTEX
  8
0
 10
827.55315556
 20
595.56622099
  0
VERTEX
  8
0
 10
826.51887616
 20
596.03793704
  0
VERTEX
  8
0
 10
825.49347670
 20
596.52861252
  0
VERTEX
  8
0
 10
824.47732593
 20
597.03814826
  0
VERTEX
  8
0
 10
823.47079266
 20
597.56644515
  0
VERTEX
  8
0
 10
822.47424567
 20
598.11340403
  0
VERTEX
  8
0
 10
821.48805375
 20
598.67892574
  0
VERTEX
  8
0
 10
820.51258568
 20
599.26291116
  0
VERTEX
  8
0
 10
818.89323131
 20
600.28828601
  0
VERTEX
  8
0
 10
817.30661196
 20
601.36348390
  0
VERTEX
  8
0
 10
815.75403519
 20
602.48724667
  0
VERTEX
  8
0
 10
814.23680858
 20
603.65831621
  0
VERTEX
  8
0
 10
812.75623971
 20
604.87543439
  0
VERTEX
  8
0
 10
811.31363615
 20
606.13734306
  0
VERTEX
  8
0
 10
809.91030546
 20
607.44278409
  0
VERTEX
  8
0
 10
808.54755524
 20
608.79049935
  0
VERTEX
  8
0
 10
807.22669305
 20
610.17923070
  0
VERTEX
  8
0
 10
805.94902648
 20
611.60772000
  0
VERTEX
  8
0
 10
804.71586308
 20
613.07470913
  0
VERTEX
  8
0
 10
803.52851044
 20
614.57893995
  0
VERTEX
  8
0
 10
802.38827613
 20
616.11915432
  0
VERTEX
  8
0
 10
801.29646773
 20
617.69409412
  0
VERTEX
  8
0
 10
800.76913186
 20
618.49419288
  0
VERTEX
  8
0
 10
800.25439281
 20
619.30250119
  0
VERTEX
  8
0
 10
799.75241402
 20
620.11886180
  0
VERTEX
  8
0
 10
799.26335894
 20
620.94311743
  0
VERTEX
  8
0
 10
798.80720121
 20
621.73963625
 42
-0.53724555
  0
VERTEX
  8
0
 10
801.84828253
 20
627.67667839
 42
0.86490825
  0
VERTEX
  8
0
 10
803.39623320
 20
674.28152637
  0
VERTEX
  8
0
 10
842.63656407
 20
741.95394655
  0
VERTEX
  8
0
 10
877.60412630
 20
802.25846065
  0
VERTEX
  8
0
 10
878.20997301
 20
804.28845298
  0
VERTEX
  8
0
 10
878.79259223
 20
806.32431216
  0
VERTEX
  8
0
 10
879.35178562
 20
808.36580800
  0
VERTEX
  8
0
 10
879.88735482
 20
810.41271034
  0
VERTEX
  8
0
 10
880.39910147
 20
812.46478900
  0
VERTEX
  8
0
 10
880.88682721
 20
814.52181380
  0
VERTEX
  8
0
 10
881.35033368
 20
816.58355459
  0
VERTEX
  8
0
 10
881.78942253
 20
818.64978117
  0
VERTEX
  8
0
 10
882.20389541
 20
820.72026338
  0
VERTEX
  8
0
 10
882.59355395
 20
822.79477104
  0
VERTEX
  8
0
 10
882.95819980
 20
824.87307398
  0
VERTEX
  8
0
 10
883.29763459
 20
826.95494204
  0
VERTEX
  8
0
 10
883.61165998
 20
829.04014502
  0
VERTEX
  8
0
 10
883.90007760
 20
831.12845277
  0
VERTEX
  8
0
 10
884.16268910
 20
833.21963511
  0
VERTEX
  8
0
 10
884.39929612
 20
835.31346185
  0
VERTEX
  8
0
 10
884.60970030
 20
837.40970284
  0
VERTEX
  8
0
 10
884.79370330
 20
839.50812789
  0
VERTEX
  8
0
 10
884.95110673
 20
841.60850684
  0
VERTEX
  8
0
 10
885.08171227
 20
843.71060951
  0
VERTEX
  8
0
 10
885.18532154
 20
845.81420573
  0
VERTEX
  8
0
 10
885.26173617
 20
847.91906531
  0
VERTEX
  8
0
 10
885.31075783
 20
850.02495811
  0
VERTEX
  8
0
 10
885.33218816
 20
852.13165392
  0
VERTEX
  8
0
 10
885.32582879
 20
854.23892259
  0
VERTEX
  8
0
 10
885.29148137
 20
856.34653394
  0
VERTEX
  8
0
 10
885.22894753
 20
858.45425780
  0
VERTEX
  8
0
 10
885.13802893
 20
860.56186399
  0
VERTEX
  8
0
 10
885.01852721
 20
862.66912234
  0
VERTEX
  8
0
 10
884.87024400
 20
864.77580267
  0
VERTEX
  8
0
 10
884.69298097
 20
866.88167483
  0
VERTEX
  8
0
 10
884.48653973
 20
868.98650861
  0
VERTEX
  8
0
 10
884.09950015
 20
872.42637702
  0
VERTEX
  8
0
 10
883.66298348
 20
875.85754324
  0
VERTEX
  8
0
 10
883.17821183
 20
879.28008370
  0
VERTEX
  8
0
 10
882.64640731
 20
882.69407483
  0
VERTEX
  8
0
 10
882.06879202
 20
886.09959305
  0
VERTEX
  8
0
 10
881.44658809
 20
889.49671478
  0
VERTEX
  8
0
 10
880.78101761
 20
892.88551648
  0
VERTEX
  8
0
 10
880.07330270
 20
896.26607453
  0
VERTEX
  8
0
 10
879.32466547
 20
899.63846539
  0
VERTEX
  8
0
 10
878.53632802
 20
903.00276548
  0
VERTEX
  8
0
 10
877.70951248
 20
906.35905123
  0
VERTEX
  8
0
 10
876.84544094
 20
909.70739906
  0
VERTEX
  8
0
 10
875.94533552
 20
913.04788541
  0
VERTEX
  8
0
 10
875.01041833
 20
916.38058669
  0
VERTEX
  8
0
 10
874.04191148
 20
919.70557934
  0
VERTEX
  8
0
 10
873.04103707
 20
923.02293978
  0
VERTEX
  8
0
 10
872.00901722
 20
926.33274445
  0
VERTEX
  8
0
 10
870.94707404
 20
929.63506976
  0
VERTEX
  8
0
 10
869.85642963
 20
932.92999215
  0
VERTEX
  8
0
 10
868.73830611
 20
936.21758803
  0
VERTEX
  8
0
 10
867.59392560
 20
939.49793385
  0
VERTEX
  8
0
 10
866.42451018
 20
942.77110603
  0
VERTEX
  8
0
 10
865.23128198
 20
946.03718100
  0
VERTEX
  8
0
 10
864.01546312
 20
949.29623517
  0
VERTEX
  8
0
 10
862.77827569
 20
952.54834498
  0
VERTEX
  8
0
 10
861.52094180
 20
955.79358687
  0
VERTEX
  8
0
 10
860.24468358
 20
959.03203724
  0
VERTEX
  8
0
 10
858.95072311
 20
962.26377254
  0
VERTEX
  8
0
 10
857.64028253
 20
965.48886919
  0
VERTEX
  8
0
 10
856.31458394
 20
968.70740361
  0
VERTEX
  8
0
 10
853.62230115
 20
975.12509150
  0
VERTEX
  8
0
 10
852.36652219
 20
978.03748573
  0
VERTEX
  8
0
 10
851.07647404
 20
980.93408091
  0
VERTEX
  8
0
 10
849.75182777
 20
983.81421772
  0
VERTEX
  8
0
 10
848.39225451
 20
986.67723682
  0
VERTEX
  8
0
 10
846.99742535
 20
989.52247889
  0
VERTEX
  8
0
 10
845.56701139
 20
992.34928459
  0
VERTEX
  8
0
 10
844.10068375
 20
995.15699461
  0
VERTEX
  8
0
 10
842.59811350
 20
997.94494962
  0
VERTEX
  8
0
 10
841.05897177
 20
1000.71249029
  0
VERTEX
  8
0
 10
839.48292966
 20
1003.45895728
  0
VERTEX
  8
0
 10
837.86965826
 20
1006.18369128
  0
VERTEX
  8
0
 10
836.21882868
 20
1008.88603295
  0
VERTEX
  8
0
 10
834.53011202
 20
1011.56532298
  0
VERTEX
  8
0
 10
832.80317939
 20
1014.22090202
  0
VERTEX
  8
0
 10
831.03770188
 20
1016.85211076
  0
VERTEX
  8
0
 10
829.23335061
 20
1019.45828986
  0
VERTEX
  8
0
 10
742.85457607
 20
1140.91575609
 42
-0.29882803
  0
VERTEX
  8
0
 10
742.03328836
 20
1162.84684615
  0
VERTEX
  8
0
 10
742.26328118
 20
1163.24861890
  0
VERTEX
  8
0
 10
742.51027446
 20
1163.63467917
  0
VERTEX
  8
0
 10
742.77354444
 20
1164.00479393
  0
VERTEX
  8
0
 10
743.05236738
 20
1164.35873011
  0
VERTEX
  8
0
 10
743.34601955
 20
1164.69625465
  0
VERTEX
  8
0
 10
743.65377717
 20
1165.01713450
  0
VERTEX
  8
0
 10
743.97491651
 20
1165.32113659
  0
VERTEX
  8
0
 10
744.30871382
 20
1165.60802789
  0
VERTEX
  8
0
 10
744.65444535
 20
1165.87757532
  0
VERTEX
  8
0
 10
745.01138734
 20
1166.12954583
  0
VERTEX
  8
0
 10
745.37881605
 20
1166.36370638
  0
VERTEX
  8
0
 10
745.75600773
 20
1166.57982390
  0
VERTEX
  8
0
 10
746.14223863
 20
1166.77766534
  0
VERTEX
  8
0
 10
746.53678501
 20
1166.95699763
  0
VERTEX
  8
0
 10
746.93892311
 20
1167.11758773
  0
VERTEX
  8
0
 10
747.34792918
 20
1167.25920259
  0
VERTEX
  8
0
 10
747.76307948
 20
1167.38160913
  0
VERTEX
  8
0
 10
748.18365026
 20
1167.48457432
  0
VERTEX
  8
0
 10
748.60891777
 20
1167.56786509
  0
VERTEX
  8
0
 10
749.03815825
 20
1167.63124838
  0
VERTEX
  8
0
 10
749.47064797
 20
1167.67449115
  0
VERTEX
  8
0
 10
749.90566317
 20
1167.69736033
  0
VERTEX
  8
0
 10
750.34248010
 20
1167.69962287
  0
VERTEX
  8
0
 10
750.78037501
 20
1167.68104571
  0
VERTEX
  8
0
 10
751.21862415
 20
1167.64139580
  0
VERTEX
  8
0
 10
751.65650379
 20
1167.58044008
  0
VERTEX
  8
0
 10
752.09329015
 20
1167.49794550
  0
VERTEX
  8
0
 10
752.52825951
 20
1167.39367900
  0
VERTEX
  8
0
 10
752.96068811
 20
1167.26740752
  0
VERTEX
  8
0
 10
753.38985219
 20
1167.11889801
  0
VERTEX
  8
0
 10
753.81502801
 20
1166.94791742
  0
VERTEX
  8
0
 10
754.23549183
 20
1166.75423268
  0
VERTEX
  8
0
 10
759.46826517
 20
1159.69237006
  0
VERTEX
  8
0
 10
760.01887789
 20
1159.36027667
  0
VERTEX
  8
0
 10
760.57957804
 20
1159.05960288
  0
VERTEX
  8
0
 10
761.14928597
 20
1158.79011213
  0
VERTEX
  8
0
 10
761.72692206
 20
1158.55156784
  0
VERTEX
  8
0
 10
762.31140668
 20
1158.34373343
  0
VERTEX
  8
0
 10
762.90166019
 20
1158.16637235
  0
VERTEX
  8
0
 10
763.49660294
 20
1158.01924803
  0
VERTEX
  8
0
 10
764.09515531
 20
1157.90212389
  0
VERTEX
  8
0
 10
764.69623767
 20
1157.81476337
  0
VERTEX
  8
0
 10
765.29877038
 20
1157.75692989
  0
VERTEX
  8
0
 10
765.90167380
 20
1157.72838690
  0
VERTEX
  8
0
 10
766.50386830
 20
1157.72889781
  0
VERTEX
  8
0
 10
767.10427424
 20
1157.75822607
  0
VERTEX
  8
0
 10
767.70181200
 20
1157.81613509
  0
VERTEX
  8
0
 10
768.29540193
 20
1157.90238832
  0
VERTEX
  8
0
 10
768.88396441
 20
1158.01674919
  0
VERTEX
  8
0
 10
769.46641979
 20
1158.15898113
  0
VERTEX
  8
0
 10
770.04168845
 20
1158.32884755
  0
VERTEX
  8
0
 10
770.60869074
 20
1158.52611190
  0
VERTEX
  8
0
 10
771.16634704
 20
1158.75053761
  0
VERTEX
  8
0
 10
771.71357771
 20
1159.00188811
  0
VERTEX
  8
0
 10
772.24930311
 20
1159.27992684
  0
VERTEX
  8
0
 10
772.77244361
 20
1159.58441721
  0
VERTEX
  8
0
 10
773.28191957
 20
1159.91512267
  0
VERTEX
  8
0
 10
773.77665137
 20
1160.27180664
  0
VERTEX
  8
0
 10
774.25555937
 20
1160.65423256
  0
VERTEX
  8
0
 10
774.71756393
 20
1161.06216385
  0
VERTEX
  8
0
 10
775.16158541
 20
1161.49536395
  0
VERTEX
  8
0
 10
775.58654419
 20
1161.95359628
  0
VERTEX
  8
0
 10
775.99136062
 20
1162.43662429
  0
VERTEX
  8
0
 10
776.37495508
 20
1162.94421140
  0
VERTEX
  8
0
 10
776.73624793
 20
1163.47612103
  0
VERTEX
  8
0
 10
776.99752794
 20
1163.90039967
  0
VERTEX
  8
0
 10
777.24004553
 20
1164.33091158
  0
VERTEX
  8
0
 10
777.46390787
 20
1164.76715949
  0
VERTEX
  8
0
 10
777.66922209
 20
1165.20864613
  0
VERTEX
  8
0
 10
777.85609534
 20
1165.65487420
  0
VERTEX
  8
0
 10
778.02463478
 20
1166.10534643
  0
VERTEX
  8
0
 10
778.17494755
 20
1166.55956554
  0
VERTEX
  8
0
 10
778.30714078
 20
1167.01703424
  0
VERTEX
  8
0
 10
778.42132165
 20
1167.47725525
  0
VERTEX
  8
0
 10
778.51759727
 20
1167.93973129
  0
VERTEX
  8
0
 10
778.59607482
 20
1168.40396509
  0
VERTEX
  8
0
 10
778.65686143
 20
1168.86945935
  0
VERTEX
  8
0
 10
778.70006424
 20
1169.33571680
  0
VERTEX
  8
0
 10
778.72579042
 20
1169.80224017
  0
VERTEX
  8
0
 10
778.73414710
 20
1170.26853215
  0
VERTEX
  8
0
 10
778.72524143
 20
1170.73409549
  0
SEQEND
  0
POLYLINE
  8
METAL_FRAME
 62
256
 66
   1
 39
0.000000
 70
    1
  0
VERTEX
  8
0
 10
969.70909640
 20
916.21972960
 42
-0.41421356
  0
VERTEX
  8
0
 10
953.04143643
 20
948.19924040
 42
-0.41421356
  0
VERTEX
  8
0
 10
985.02094723
 20
964.86690037
  0
VERTEX
  8
0
 10
1014.03165190
 20
955.73568934
 42
-0.41421356
  0
VERTEX
  8
0
 10
1030.69931186
 20
923.75617854
 42
-0.41421356
  0
VERTEX
  8
0
 10
998.71980106
 20
907.08851857
  0
VERTEX
  8
0
 10
969.70909640
 20
916.21972960
  0
SEQEND
  0
POLYLINE
  8
METAL_FRAME
 62
256
 66
   1
 39
0.000000
 70
    1
  0
VERTEX
  8
0
 10
1625.09012255
 20
876.63771806
  0
VERTEX
  8
0
 10
1620.28476530
 20
867.77030206
  0
VERTEX
  8
0
 10
1244.06811364
 20
1030.37277639
  0
VERTEX
  8
0
 10
925.22328839
 20
1162.14142748
 42
-0.68627863
  0
VERTEX
  8
0
 10
946.93987035
 20
1227.96846220
  0
VERTEX
  8
0
 10
1261.54348814
 20
1144.81943437
  0
VERTEX
  8
0
 10
1263.56411073
 20
1144.30963759
  0
VERTEX
  8
0
 10
1265.59570590
 20
1143.84548234
  0
VERTEX
  8
0
 10
1267.63723166
 20
1143.42706816
  0
VERTEX
  8
0
 10
1269.68764598
 20
1143.05449464
  0
VERTEX
  8
0
 10
1271.74590686
 20
1142.72786135
  0
VERTEX
  8
0
 10
1273.81097227
 20
1142.44726786
  0
VERTEX
  8
0
 10
1275.88180022
 20
1142.21281373
  0
VERTEX
  8
0
 10
1277.95734869
 20
1142.02459854
  0
VERTEX
  8
0
 10
1280.03657565
 20
1141.88272187
  0
VERTEX
  8
0
 10
1282.11843911
 20
1141.78728327
  0
VERTEX
  8
0
 10
1284.20189704
 20
1141.73838235
  0
VERTEX
  8
0
 10
1286.28590744
 20
1141.73611864
  0
VERTEX
  8
0
 10
1288.36942830
 20
1141.78059174
  0
VERTEX
  8
0
 10
1290.45141759
 20
1141.87190120
  0
VERTEX
  8
0
 10
1292.53083331
 20
1142.01014661
  0
VERTEX
  8
0
 10
1294.60663345
 20
1142.19542753
  0
VERTEX
  8
0
 10
1296.50520013
 20
1142.40646100
  0
VERTEX
  8
0
 10
1298.39897988
 20
1142.65659755
  0
VERTEX
  8
0
 10
1300.28719700
 20
1142.94563689
  0
VERTEX
  8
0
 10
1302.16907579
 20
1143.27337872
  0
VERTEX
  8
0
 10
1304.04384061
 20
1143.63962272
  0
VERTEX
  8
0
 10
1305.91071575
 20
1144.04416861
  0
VERTEX
  8
0
 10
1307.76892555
 20
1144.48681608
  0
VERTEX
  8
0
 10
1309.61769432
 20
1144.96736482
  0
VERTEX
  8
0
 10
1311.45624638
 20
1145.48561453
  0
VERTEX
  8
0
 10
1313.28380606
 20
1146.04136491
  0
VERTEX
  8
0
 10
1315.09959767
 20
1146.63441566
  0
VERTEX
  8
0
 10
1316.90284553
 20
1147.26456648
  0
VERTEX
  8
0
 10
1318.69277397
 20
1147.93161705
  0
VERTEX
  8
0
 10
1320.46860731
 20
1148.63536709
  0
VERTEX
  8
0
 10
1322.22956986
 20
1149.37561629
  0
VERTEX
  8
0
 10
1323.97488594
 20
1150.15216433
  0
VERTEX
  8
0
 10
1325.65897595
 20
1150.94296434
  0
VERTEX
  8
0
 10
1327.32691045
 20
1151.76727323
  0
VERTEX
  8
0
 10
1328.97805101
 20
1152.62471260
  0
VERTEX
  8
0
 10
1330.61175919
 20
1153.51490402
  0
VERTEX
  8
0
 10
1332.22739658
 20
1154.43746907
  0
VERTEX
  8
0
 10
1333.82432472
 20
1155.39202933
  0
VERTEX
  8
0
 10
1335.40190519
 20
1156.37820639
  0
VERTEX
  8
0
 10
1336.95949956
 20
1157.39562183
  0
VERTEX
  8
0
 10
1338.49646939
 20
1158.44389723
  0
VERTEX
  8
0
 10
1340.01217625
 20
1159.52265415
  0
VERTEX
  8
0
 10
1341.50598172
 20
1160.63151420
  0
VERTEX
  8
0
 10
1342.97724735
 20
1161.77009895
  0
VERTEX
  8
0
 10
1344.42533472
 20
1162.93802999
  0
VERTEX
  8
0
 10
1345.84960538
 20
1164.13492888
  0
VERTEX
  8
0
 10
1347.24942092
 20
1165.36041722
  0
VERTEX
  8
0
 10
1348.62414289
 20
1166.61411658
  0
VERTEX
  8
0
 10
1349.84922627
 20
1167.77523710
  0
VERTEX
  8
0
 10
1351.05312968
 20
1168.95829071
  0
VERTEX
  8
0
 10
1352.23548434
 20
1170.16286903
  0
VERTEX
  8
0
 10
1353.39592148
 20
1171.38856365
  0
VERTEX
  8
0
 10
1354.53407234
 20
1172.63496618
  0
VERTEX
  8
0
 10
1355.64956813
 20
1173.90166822
  0
VERTEX
  8
0
 10
1356.74204009
 20
1175.18826138
  0
VERTEX
  8
0
 10
1357.81111945
 20
1176.49433724
  0
VERTEX
  8
0
 10
1358.85643742
 20
1177.81948742
  0
VERTEX
  8
0
 10
1359.87762524
 20
1179.16330353
  0
VERTEX
  8
0
 10
1360.87431414
 20
1180.52537716
  0
VERTEX
  8
0
 10
1361.84613535
 20
1181.90529991
  0
VERTEX
  8
0
 10
1362.79272009
 20
1183.30266339
  0
VERTEX
  8
0
 10
1363.71369960
 20
1184.71705921
  0
VERTEX
  8
0
 10
1364.60870509
 20
1186.14807896
  0
VERTEX
  8
0
 10
1365.47736780
 20
1187.59531424
  0
VERTEX
  8
0
 10
1402.23194311
 20
1250.10841590
  0
VERTEX
  8
0
 10
1438.98799556
 20
1312.62132814
  0
VERTEX
  8
0
 10
1475.73585228
 20
1375.13895219
  0
VERTEX
  8
0
 10
1494.11925613
 20
1406.39065594
  0
VERTEX
  8
0
 10
1518.62258898
 20
1448.06589092
  0
VERTEX
  8
0
 10
1519.46996182
 20
1448.57751205
  0
VERTEX
  8
0
 10
1520.32553564
 20
1449.07499026
  0
VERTEX
  8
0
 10
1521.18906685
 20
1449.55826986
  0
VERTEX
  8
0
 10
1522.06031184
 20
1450.02729517
  0
VERTEX
  8
0
 10
1522.93902701
 20
1450.48201050
  0
VERTEX
  8
0
 10
1523.82496878
 20
1450.92236017
  0
VERTEX
  8
0
 10
1524.71789352
 20
1451.34828851
  0
VERTEX
  8
0
 10
1525.61755764
 20
1451.75973981
  0
VERTEX
  8
0
 10
1526.52371755
 20
1452.15665841
  0
VERTEX
  8
0
 10
1527.43612964
 20
1452.53898861
  0
VERTEX
  8
0
 10
1528.35455031
 20
1452.90667474
  0
VERTEX
  8
0
 10
1529.27873597
 20
1453.25966109
  0
VERTEX
  8
0
 10
1530.20844299
 20
1453.59789201
  0
VERTEX
  8
0
 10
1531.14342780
 20
1453.92131179
  0
VERTEX
  8
0
 10
1532.08344679
 20
1454.22986476
  0
VERTEX
  8
0
 10
1533.02825635
 20
1454.52349523
  0
VERTEX
  8
0
 10
1533.97761289
 20
1454.80214753
  0
VERTEX
  8
0
 10
1534.93127281
 20
1455.06576595
  0
VERTEX
  8
0
 10
1535.88899251
 20
1455.31429483
  0
VERTEX
  8
0
 10
1536.85052837
 20
1455.54767847
  0
VERTEX
  8
0
 10
1537.81563681
 20
1455.76586120
  0
VERTEX
  8
0
 10
1538.78407423
 20
1455.96878732
  0
VERTEX
  8
0
 10
1539.75559702
 20
1456.15640116
  0
VERTEX
  8
0
 10
1540.72996158
 20
1456.32864703
  0
VERTEX
  8
0
 10
1541.70692432
 20
1456.48546925
  0
VERTEX
  8
0
 10
1542.68624162
 20
1456.62681212
  0
VERTEX
  8
0
 10
1543.66766990
 20
1456.75261998
  0
VERTEX
  8
0
 10
1544.65096554
 20
1456.86283714
  0
VERTEX
  8
0
 10
1545.63588497
 20
1456.95740790
  0
VERTEX
  8
0
 10
1546.62218455
 20
1457.03627659
  0
VERTEX
  8
0
 10
1547.60962070
 20
1457.09938753
  0
VERTEX
  8
0
 10
1548.59794982
 20
1457.14668503
  0
VERTEX
  8
0
 10
1549.73437165
 20
1457.18117638
  0
VERTEX
  8
0
 10
1550.87113321
 20
1457.19422971
  0
VERTEX
  8
0
 10
1552.00786572
 20
1457.18594416
  0
VERTEX
  8
0
 10
1553.14420039
 20
1457.15641888
  0
VERTEX
  8
0
 10
1554.27976845
 20
1457.10575299
  0
VERTEX
  8
0
 10
1555.41420110
 20
1457.03404565
  0
VERTEX
  8
0
 10
1556.54712957
 20
1456.94139601
  0
VERTEX
  8
0
 10
1557.67818505
 20
1456.82790321
  0
VERTEX
  8
0
 10
1558.80699877
 20
1456.69366638
  0
VERTEX
  8
0
 10
1559.93320193
 20
1456.53878469
  0
VERTEX
  8
0
 10
1561.05642575
 20
1456.36335727
  0
VERTEX
  8
0
 10
1562.17630145
 20
1456.16748326
  0
VERTEX
  8
0
 10
1563.29246025
 20
1455.95126181
  0
VERTEX
  8
0
 10
1564.40453334
 20
1455.71479206
  0
VERTEX
  8
0
 10
1565.51215194
 20
1455.45817317
  0
VERTEX
  8
0
 10
1566.61494729
 20
1455.18150427
  0
VERTEX
  8
0
 10
1567.71255056
 20
1454.88488450
  0
VERTEX
  8
0
 10
1568.80459300
 20
1454.56841300
  0
VERTEX
  8
0
 10
1569.89070581
 20
1454.23218894
  0
VERTEX
  8
0
 10
1570.97052021
 20
1453.87631145
  0
VERTEX
  8
0
 10
1572.04366740
 20
1453.50087967
  0
VERTEX
  8
0
 10
1573.10977861
 20
1453.10599274
  0
VERTEX
  8
0
 10
1574.16848504
 20
1452.69174982
  0
VERTEX
  8
0
 10
1575.21941791
 20
1452.25825004
  0
VERTEX
  8
0
 10
1576.26220843
 20
1451.80559256
  0
VERTEX
  8
0
 10
1577.29648782
 20
1451.33387651
  0
VERTEX
  8
0
 10
1578.32188728
 20
1450.84320103
  0
VERTEX
  8
0
 10
1579.33803805
 20
1450.33366529
  0
VERTEX
  8
0
 10
1580.34457132
 20
1449.80536840
  0
VERTEX
  8
0
 10
1581.34111831
 20
1449.25840952
  0
VERTEX
  8
0
 10
1582.32731023
 20
1448.69288781
  0
VERTEX
  8
0
 10
1583.30277830
 20
1448.10890239
  0
VERTEX
  8
0
 10
1584.92213267
 20
1447.08352754
  0
VERTEX
  8
0
 10
1586.50875202
 20
1446.00832965
  0
VERTEX
  8
0
 10
1588.06132879
 20
1444.88456687
  0
VERTEX
  8
0
 10
1589.57855540
 20
1443.71349733
  0
VERTEX
  8
0
 10
1591.05912427
 20
1442.49637916
  0
VERTEX
  8
0
 10
1592.50172783
 20
1441.23447049
  0
VERTEX
  8
0
 10
1593.90505852
 20
1439.92902946
  0
VERTEX
  8
0
 10
1595.26780874
 20
1438.58131419
  0
VERTEX
  8
0
 10
1596.58867093
 20
1437.19258285
  0
VERTEX
  8
0
 10
1597.86633750
 20
1435.76409355
  0
VERTEX
  8
0
 10
1599.09950090
 20
1434.29710442
  0
VERTEX
  8
0
 10
1600.28685355
 20
1432.79287360
  0
VERTEX
  8
0
 10
1601.42708785
 20
1431.25265923
  0
VERTEX
  8
0
 10
1602.51889625
 20
1429.67771943
  0
VERTEX
  8
0
 10
1603.04623212
 20
1428.87762067
  0
VERTEX
  8
0
 10
1603.56097117
 20
1428.06931235
  0
VERTEX
  8
0
 10
1604.06294996
 20
1427.25295175
  0
VERTEX
  8
0
 10
1604.55200504
 20
1426.42869611
  0
VERTEX
  8
0
 10
1605.00816277
 20
1425.63217730
 42
-0.53724555
  0
VERTEX
  8
0
 10
1601.96708145
 20
1419.69513516
 42
0.86490825
  0
VERTEX
  8
0
 10
1600.41913078
 20
1373.09028718
  0
VERTEX
  8
0
 10
1561.17879991
 20
1305.41786699
  0
VERTEX
  8
0
 10
1526.21123768
 20
1245.11335290
  0
VERTEX
  8
0
 10
1525.60539097
 20
1243.08336057
  0
VERTEX
  8
0
 10
1525.02277175
 20
1241.04750139
  0
VERTEX
  8
0
 10
1524.46357836
 20
1239.00600554
  0
VERTEX
  8
0
 10
1523.92800916
 20
1236.95910321
  0
VERTEX
  8
0
 10
1523.41626252
 20
1234.90702455
  0
VERTEX
  8
0
 10
1522.92853677
 20
1232.84999974
  0
VERTEX
  8
0
 10
1522.46503030
 20
1230.78825896
  0
VERTEX
  8
0
 10
1522.02594145
 20
1228.72203238
  0
VERTEX
  8
0
 10
1521.61146857
 20
1226.65155017
  0
VERTEX
  8
0
 10
1521.22181003
 20
1224.57704251
  0
VERTEX
  8
0
 10
1520.85716418
 20
1222.49873957
  0
VERTEX
  8
0
 10
1520.51772939
 20
1220.41687151
  0
VERTEX
  8
0
 10
1520.20370400
 20
1218.33166853
  0
VERTEX
  8
0
 10
1519.91528638
 20
1216.24336078
  0
VERTEX
  8
0
 10
1519.65267488
 20
1214.15217844
  0
VERTEX
  8
0
 10
1519.41606786
 20
1212.05835170
  0
VERTEX
  8
0
 10
1519.20566368
 20
1209.96211071
  0
VERTEX
  8
0
 10
1519.02166068
 20
1207.86368566
  0
VERTEX
  8
0
 10
1518.86425725
 20
1205.76330671
  0
VERTEX
  8
0
 10
1518.73365171
 20
1203.66120403
  0
VERTEX
  8
0
 10
1518.63004245
 20
1201.55760782
  0
VERTEX
  8
0
 10
1518.55362781
 20
1199.45274823
  0
VERTEX
  8
0
 10
1518.50460615
 20
1197.34685544
  0
VERTEX
  8
0
 10
1518.48317582
 20
1195.24015962
  0
VERTEX
  8
0
 10
1518.48953519
 20
1193.13289096
  0
VERTEX
  8
0
 10
1518.52388262
 20
1191.02527961
  0
VERTEX
  8
0
 10
1518.58641645
 20
1188.91755575
  0
VERTEX
  8
0
 10
1518.67733505
 20
1186.80994956
  0
VERTEX
  8
0
 10
1518.79683677
 20
1184.70269121
  0
VERTEX
  8
0
 10
1518.94511998
 20
1182.59601087
  0
VERTEX
  8
0
 10
1519.12238302
 20
1180.49013872
  0
VERTEX
  8
0
 10
1519.32882425
 20
1178.38530493
  0
VERTEX
  8
0
 10
1519.71586383
 20
1174.94543653
  0
VERTEX
  8
0
 10
1520.15238050
 20
1171.51427030
  0
VERTEX
  8
0
 10
1520.63715215
 20
1168.09172985
  0
VERTEX
  8
0
 10
1521.16895667
 20
1164.67773872
  0
VERTEX
  8
0
 10
1521.74657196
 20
1161.27222050
  0
VERTEX
  8
0
 10
1522.36877589
 20
1157.87509876
  0
VERTEX
  8
0
 10
1523.03434637
 20
1154.48629707
  0
VERTEX
  8
0
 10
1523.74206128
 20
1151.10573902
  0
VERTEX
  8
0
 10
1524.49069851
 20
1147.73334815
  0
VERTEX
  8
0
 10
1525.27903596
 20
1144.36904806
  0
VERTEX
  8
0
 10
1526.10585150
 20
1141.01276231
  0
VERTEX
  8
0
 10
1526.96992304
 20
1137.66441449
  0
VERTEX
  8
0
 10
1527.87002846
 20
1134.32392814
  0
VERTEX
  8
0
 10
1528.80494565
 20
1130.99122685
  0
VERTEX
  8
0
 10
1529.77345250
 20
1127.66623421
  0
VERTEX
  8
0
 10
1530.77432691
 20
1124.34887377
  0
VERTEX
  8
0
 10
1531.80634676
 20
1121.03906910
  0
VERTEX
  8
0
 10
1532.86828994
 20
1117.73674379
  0
VERTEX
  8
0
 10
1533.95893435
 20
1114.44182140
  0
VERTEX
  8
0
 10
1535.07705787
 20
1111.15422552
  0
VERTEX
  8
0
 10
1536.22143838
 20
1107.87387970
  0
VERTEX
  8
0
 10
1537.39085380
 20
1104.60070752
  0
VERTEX
  8
0
 10
1538.58408200
 20
1101.33463255
  0
VERTEX
  8
0
 10
1539.79990086
 20
1098.07557838
  0
VERTEX
  8
0
 10
1541.03708829
 20
1094.82346857
  0
VERTEX
  8
0
 10
1542.29442218
 20
1091.57822668
  0
VERTEX
  8
0
 10
1543.57068040
 20
1088.33977631
  0
VERTEX
  8
0
 10
1544.86464087
 20
1085.10804100
  0
VERTEX
  8
0
 10
1546.17508145
 20
1081.88294435
  0
VERTEX
  8
0
 10
1547.50078004
 20
1078.66440993
  0
VERTEX
  8
0
 10
1550.19306283
 20
1072.24672205
  0
VERTEX
  8
0
 10
1551.44884179
 20
1069.33432782
  0
VERTEX
  8
0
 10
1552.73888994
 20
1066.43773264
  0
VERTEX
  8
0
 10
1554.06353621
 20
1063.55759583
  0
VERTEX
  8
0
 10
1555.42310947
 20
1060.69457673
  0
VERTEX
  8
0
 10
1556.81793864
 20
1057.84933466
  0
VERTEX
  8
0
 10
1558.24835259
 20
1055.02252896
  0
VERTEX
  8
0
 10
1559.71468023
 20
1052.21481893
  0
VERTEX
  8
0
 10
1561.21725048
 20
1049.42686393
  0
VERTEX
  8
0
 10
1562.75639221
 20
1046.65932326
  0
VERTEX
  8
0
 10
1564.33243432
 20
1043.91285627
  0
VERTEX
  8
0
 10
1565.94570572
 20
1041.18812227
  0
VERTEX
  8
0
 10
1567.59653530
 20
1038.48578059
  0
VERTEX
  8
0
 10
1569.28525196
 20
1035.80649057
  0
VERTEX
  8
0
 10
1571.01218459
 20
1033.15091152
  0
VERTEX
  8
0
 10
1572.77766210
 20
1030.51970279
  0
VERTEX
  8
0
 10
1574.58201337
 20
1027.91352368
  0
VERTEX
  8
0
 10
1660.96078791
 20
906.45605745
 42
-0.29882803
  0
VERTEX
  8
0
 10
1661.78207562
 20
884.52496740
  0
VERTEX
  8
0
 10
1661.55208280
 20
884.12319465
  0
VERTEX
  8
0
 10
1661.30508953
 20
883.73713437
  0
VERTEX
  8
0
 10
1661.04181954
 20
883.36701962
  0
VERTEX
  8
0
 10
1660.76299660
 20
883.01308344
  0
VERTEX
  8
0
 10
1660.46934443
 20
882.67555890
  0
VERTEX
  8
0
 10
1660.16158681
 20
882.35467905
  0
VERTEX
  8
0
 10
1659.84044747
 20
882.05067696
  0
VERTEX
  8
0
 10
1659.50665016
 20
881.76378566
  0
VERTEX
  8
0
 10
1659.16091863
 20
881.49423823
  0
VERTEX
  8
0
 10
1658.80397664
 20
881.24226771
  0
VERTEX
  8
0
 10
1658.43654793
 20
881.00810717
  0
VERTEX
  8
0
 10
1658.05935625
 20
880.79198965
  0
VERTEX
  8
0
 10
1657.67312535
 20
880.59414821
  0
VERTEX
  8
0
 10
1657.27857897
 20
880.41481592
  0
VERTEX
  8
0
 10
1656.87644087
 20
880.25422582
  0
VERTEX
  8
0
 10
1656.46743480
 20
880.11261096
  0
VERTEX
  8
0
 10
1656.05228450
 20
879.99020441
  0
VERTEX
  8
0
 10
1655.63171372
 20
879.88723923
  0
VERTEX
  8
0
 10
1655.20644621
 20
879.80394846
  0
VERTEX
  8
0
 10
1654.77720573
 20
879.74056516
  0
VERTEX
  8
0
 10
1654.34471601
 20
879.69732240
  0
VERTEX
  8
0
 10
1653.90970081
 20
879.67445322
  0
VERTEX
  8
0
 10
1653.47288388
 20
879.67219068
  0
VERTEX
  8
0
 10
1653.03498898
 20
879.69076783
  0
VERTEX
  8
0
 10
1652.59673983
 20
879.73041775
  0
VERTEX
  8
0
 10
1652.15886019
 20
879.79137347
  0
VERTEX
  8
0
 10
1651.72207383
 20
879.87386805
  0
VERTEX
  8
0
 10
1651.28710447
 20
879.97813455
  0
VERTEX
  8
0
 10
1650.85467588
 20
880.10440603
  0
VERTEX
  8
0
 10
1650.42551179
 20
880.25291553
  0
VERTEX
  8
0
 10
1650.00033597
 20
880.42389613
  0
VERTEX
  8
0
 10
1649.57987215
 20
880.61758087
  0
VERTEX
  8
0
 10
1644.34709881
 20
887.67944349
  0
VERTEX
  8
0
 10
1643.79648609
 20
888.01153688
  0
VERTEX
  8
0
 10
1643.23578594
 20
888.31221067
  0
VERTEX
  8
0
 10
1642.66607801
 20
888.58170141
  0
VERTEX
  8
0
 10
1642.08844192
 20
888.82024571
  0
VERTEX
  8
0
 10
1641.50395730
 20
889.02808011
  0
VERTEX
  8
0
 10
1640.91370379
 20
889.20544120
  0
VERTEX
  8
0
 10
1640.31876104
 20
889.35256552
  0
VERTEX
  8
0
 10
1639.72020867
 20
889.46968966
  0
VERTEX
  8
0
 10
1639.11912631
 20
889.55705018
  0
VERTEX
  8
0
 10
1638.51659360
 20
889.61488365
  0
VERTEX
  8
0
 10
1637.91369018
 20
889.64342665
  0
VERTEX
  8
0
 10
1637.31149568
 20
889.64291574
  0
VERTEX
  8
0
 10
1636.71108974
 20
889.61358748
  0
VERTEX
  8
0
 10
1636.11355198
 20
889.55567845
  0
VERTEX
  8
0
 10
1635.51996205
 20
889.46942522
  0
VERTEX
  8
0
 10
1634.93139957
 20
889.35506436
  0
VERTEX
  8
0
 10
1634.34894419
 20
889.21283242
  0
VERTEX
  8
0
 10
1633.77367553
 20
889.04296600
  0
VERTEX
  8
0
 10
1633.20667324
 20
888.84570164
  0
VERTEX
  8
0
 10
1632.64901694
 20
888.62127593
  0
VERTEX
  8
0
 10
1632.10178627
 20
888.36992543
  0
VERTEX
  8
0
 10
1631.56606087
 20
888.09188671
  0
VERTEX
  8
0
 10
1631.04292037
 20
887.78739634
  0
VERTEX
  8
0
 10
1630.53344441
 20
887.45669088
  0
VERTEX
  8
0
 10
1630.03871261
 20
887.10000691
  0
VERTEX
  8
0
 10
1629.55980461
 20
886.71758099
  0
VERTEX
  8
0
 10
1629.09780005
 20
886.30964970
  0
VERTEX
  8
0
 10
1628.65377857
 20
885.87644960
  0
VERTEX
  8
0
 10
1628.22881979
 20
885.41821727
  0
VERTEX
  8
0
 10
1627.82400336
 20
884.93518925
  0
VERTEX
  8
0
 10
1627.44040890
 20
884.42760215
  0
VERTEX
  8
0
 10
1627.07911605
 20
883.89569252
  0
VERTEX
  8
0
 10
1626.81783605
 20
883.47141388
  0
VERTEX
  8
0
 10
1626.57531845
 20
883.04090196
  0
VERTEX
  8
0
 10
1626.35145611
 20
882.60465405
  0
VERTEX
  8
0
 10
1626.14614189
 20
882.16316741
  0
VERTEX
  8
0
 10
1625.95926864
 20
881.71693935
  0
VERTEX
  8
0
 10
1625.79072920
 20
881.26646712
  0
VERTEX
  8
0
 10
1625.64041643
 20
880.81224801
  0
VERTEX
  8
0
 10
1625.50822320
 20
880.35477931
  0
VERTEX
  8
0
 10
1625.39404233
 20
879.89455830
  0
VERTEX
  8
0
 10
1625.29776671
 20
879.43208225
  0
VERTEX
  8
0
 10
1625.21928916
 20
878.96784846
  0
VERTEX
  8
0
 10
1625.15850255
 20
878.50235420
  0
VERTEX
  8
0
 10
1625.11529974
 20
878.03609675
  0
VERTEX
  8
0
 10
1625.08957356
 20
877.56957338
  0
VERTEX
  8
0
 10
1625.08121688
 20
877.10328140
  0
VERTEX
  8
0
 10
1625.09012255
 20
876.63771806
  0
SEQEND
  0
POLYLINE
  8
METAL_FRAME
 62
256
 66
   1
 39
0.000000
 70
    1
  0
VERTEX
  8
0
 10
1434.10626758
 20
1131.15208395
 42
-0.41421356
  0
VERTEX
  8
0
 10
1450.77392755
 20
1099.17257315
 42
-0.41421356
  0
VERTEX
  8
0
 10
1418.79441675
 20
1082.50491317
  0
VERTEX
  8
0
 10
1389.78371208
 20
1091.63612421
 42
-0.41421356
  0
VERTEX
  8
0
 10
1373.11605212
 20
1123.61563501
 42
-0.41421356
  0
VERTEX
  8
0
 10
1405.09556292
 20
1140.28329498
  0
VERTEX
  8
0
 10
1434.10626758
 20
1131.15208395
  0
SEQEND
  0
POLYLINE
  8
METAL_FRAME
 62
256
 66
   1
 39
0.000000
 70
    1
  0
VERTEX
  8
0
 10
217.07279612
 20
1527.79457546
  0
VERTEX
  8
0
 10
224.85003827
 20
1534.21618190
  0
VERTEX
  8
0
 10
512.76008452
 20
1242.52055473
  0
VERTEX
  8
0
 10
759.02645311
 20
1000.90541508
 42
-0.68627863
  0
VERTEX
  8
0
 10
714.23194770
 20
948.00682609
  0
VERTEX
  8
0
 10
453.68472676
 20
1142.95385175
  0
VERTEX
  8
0
 10
452.00221135
 20
1144.18346563
  0
VERTEX
  8
0
 10
450.29242473
 20
1145.37487184
  0
VERTEX
  8
0
 10
448.55629572
 20
1146.52758772
  0
VERTEX
  8
0
 10
446.79475316
 20
1147.64113059
  0
VERTEX
  8
0
 10
445.00872589
 20
1148.71501781
  0
VERTEX
  8
0
 10
443.19914275
 20
1149.74876668
  0
VERTEX
  8
0
 10
441.36693258
 20
1150.74189456
  0
VERTEX
  8
0
 10
439.51302420
 20
1151.69391879
  0
VERTEX
  8
0
 10
437.63834647
 20
1152.60435668
  0
VERTEX
  8
0
 10
435.74382821
 20
1153.47272558
  0
VERTEX
  8
0
 10
433.83039826
 20
1154.29854280
  0
VERTEX
  8
0
 10
431.89898547
 20
1155.08132572
  0
VERTEX
  8
0
 10
429.95051865
 20
1155.82059163
  0
VERTEX
  8
0
 10
427.98592666
 20
1156.51585789
  0
VERTEX
  8
0
 10
426.00613834
 20
1157.16664182
  0
VERTEX
  8
0
 10
424.01208251
 20
1157.77246076
  0
VERTEX
  8
0
 10
422.17270761
 20
1158.28800953
  0
VERTEX
  8
0
 10
420.32312280
 20
1158.76550934
  0
VERTEX
  8
0
 10
418.46412234
 20
1159.20485531
  0
VERTEX
  8
0
 10
416.59650045
 20
1159.60594258
  0
VERTEX
  8
0
 10
414.72105137
 20
1159.96866632
  0
VERTEX
  8
0
 10
412.83856931
 20
1160.29292164
  0
VERTEX
  8
0
 10
410.94984853
 20
1160.57860369
  0
VERTEX
  8
0
 10
409.05568325
 20
1160.82560763
  0
VERTEX
  8
0
 10
407.15686770
 20
1161.03382859
  0
VERTEX
  8
0
 10
405.25419612
 20
1161.20316172
  0
VERTEX
  8
0
 10
403.34846274
 20
1161.33350215
  0
VERTEX
  8
0
 10
401.44046178
 20
1161.42474502
  0
VERTEX
  8
0
 10
399.53098749
 20
1161.47678549
  0
VERTEX
  8
0
 10
397.62083408
 20
1161.48951869
  0
VERTEX
  8
0
 10
395.71079581
 20
1161.46283978
  0
VERTEX
  8
0
 10
393.80166690
 20
1161.39664387
  0
VERTEX
  8
0
 10
391.94396694
 20
1161.29429810
  0
VERTEX
  8
0
 10
390.08869345
 20
1161.15483146
  0
VERTEX
  8
0
 10
388.23658014
 20
1160.97835567
  0
VERTEX
  8
0
 10
386.38836071
 20
1160.76498241
  0
VERTEX
  8
0
 10
384.54476887
 20
1160.51482341
  0
VERTEX
  8
0
 10
382.70653831
 20
1160.22799036
  0
VERTEX
  8
0
 10
380.87440274
 20
1159.90459495
  0
VERTEX
  8
0
 10
379.04909585
 20
1159.54474891
  0
VERTEX
  8
0
 10
377.23135137
 20
1159.14856392
  0
VERTEX
  8
0
 10
375.42190298
 20
1158.71615170
  0
VERTEX
  8
0
 10
373.62148439
 20
1158.24762394
  0
VERTEX
  8
0
 10
371.83082929
 20
1157.74309235
  0
VERTEX
  8
0
 10
370.05067140
 20
1157.20266862
  0
VERTEX
  8
0
 10
368.28174442
 20
1156.62646448
  0
VERTEX
  8
0
 10
366.52478204
 20
1156.01459161
  0
VERTEX
  8
0
 10
364.78051798
 20
1155.36716172
  0
VERTEX
  8
0
 10
363.20967704
 20
1154.74951383
  0
VERTEX
  8
0
 10
361.65025756
 20
1154.10359577
  0
VERTEX
  8
0
 10
360.10275442
 20
1153.42964805
  0
VERTEX
  8
0
 10
358.56766255
 20
1152.72791120
  0
VERTEX
  8
0
 10
357.04547685
 20
1151.99862571
  0
VERTEX
  8
0
 10
355.53669223
 20
1151.24203211
  0
VERTEX
  8
0
 10
354.04180358
 20
1150.45837091
  0
VERTEX
  8
0
 10
352.56130584
 20
1149.64788263
  0
VERTEX
  8
0
 10
351.09569389
 20
1148.81080778
  0
VERTEX
  8
0
 10
349.64546266
 20
1147.94738687
  0
VERTEX
  8
0
 10
348.21110704
 20
1147.05786043
  0
VERTEX
  8
0
 10
346.79312195
 20
1146.14246897
  0
VERTEX
  8
0
 10
345.39200228
 20
1145.20145299
  0
VERTEX
  8
0
 10
344.00824295
 20
1144.23505302
  0
VERTEX
  8
0
 10
342.64233888
 20
1143.24350957
  0
VERTEX
  8
0
 10
341.29478496
 20
1142.22706317
  0
VERTEX
  8
0
 10
283.79871609
 20
1098.03443086
  0
VERTEX
  8
0
 10
226.30134861
 20
1053.84252753
  0
VERTEX
  8
0
 10
168.80981499
 20
1009.64318530
  0
VERTEX
  8
0
 10
140.05792547
 20
987.55365444
  0
VERTEX
  8
0
 10
101.72701306
 20
958.09215948
  0
VERTEX
  8
0
 10
100.74968600
 20
957.93522408
  0
VERTEX
  8
0
 10
99.77005315
 20
957.79447391
  0
VERTEX
  8
0
 10
98.78836123
 20
957.66986936
  0
VERTEX
  8
0
 10
97.80485697
 20
957.56137078
  0
VERTEX
  8
0
 10
96.81978709
 20
957.46893857
  0
VERTEX
  8
0
 10
95.83339829
 20
957.39253308
  0
VERTEX
  8
0
 10
94.84593733
 20
957.33211471
  0
VERTEX
  8
0
 10
93.85765091
 20
957.28764381
  0
VERTEX
  8
0
 10
92.86878575
 20
957.25908077
  0
VERTEX
  8
0
 10
91.87958857
 20
957.24638597
  0
VERTEX
  8
0
 10
90.89030611
 20
957.24951977
  0
VERTEX
  8
0
 10
89.90118507
 20
957.26844255
  0
VERTEX
  8
0
 10
88.91247220
 20
957.30311469
  0
VERTEX
  8
0
 10
87.92441420
 20
957.35349657
  0
VERTEX
  8
0
 10
86.93725779
 20
957.41954854
  0
VERTEX
  8
0
 10
85.95124971
 20
957.50123100
  0
VERTEX
  8
0
 10
84.96663667
 20
957.59850432
  0
VERTEX
  8
0
 10
83.98366538
 20
957.71132886
  0
VERTEX
  8
0
 10
83.00258259
 20
957.83966501
  0
VERTEX
  8
0
 10
82.02363501
 20
957.98347315
  0
VERTEX
  8
0
 10
81.04706936
 20
958.14271363
  0
VERTEX
  8
0
 10
80.07313235
 20
958.31734684
  0
VERTEX
  8
0
 10
79.10207073
 20
958.50733316
  0
VERTEX
  8
0
 10
78.13413120
 20
958.71263296
  0
VERTEX
  8
0
 10
77.16956049
 20
958.93320662
  0
VERTEX
  8
0
 10
76.20860532
 20
959.16901451
  0
VERTEX
  8
0
 10
75.25151242
 20
959.42001699
  0
VERTEX
  8
0
 10
74.29852850
 20
959.68617445
  0
VERTEX
  8
0
 10
73.34990028
 20
959.96744728
  0
VERTEX
  8
0
 10
72.40587450
 20
960.26379583
  0
VERTEX
  8
0
 10
71.46669787
 20
960.57518048
  0
VERTEX
  8
0
 10
70.53261711
 20
960.90156161
  0
VERTEX
  8
0
 10
69.46602445
 20
961.29529289
  0
VERTEX
  8
0
 10
68.40714762
 20
961.70902843
  0
VERTEX
  8
0
 10
67.35629141
 20
962.14253815
  0
VERTEX
  8
0
 10
66.31376061
 20
962.59559198
  0
VERTEX
  8
0
 10
65.27986002
 20
963.06795986
  0
VERTEX
  8
0
 10
64.25489442
 20
963.55941170
  0
VERTEX
  8
0
 10
63.23916861
 20
964.06971742
  0
VERTEX
  8
0
 10
62.23298738
 20
964.59864696
  0
VERTEX
  8
0
 10
61.23665553
 20
965.14597023
  0
VERTEX
  8
0
 10
60.25047784
 20
965.71145717
  0
VERTEX
  8
0
 10
59.27475912
 20
966.29487769
  0
VERTEX
  8
0
 10
58.30980415
 20
966.89600173
  0
VERTEX
  8
0
 10
57.35591771
 20
967.51459921
  0
VERTEX
  8
0
 10
56.41340462
 20
968.15044005
  0
VERTEX
  8
0
 10
55.48256966
 20
968.80329418
  0
VERTEX
  8
0
 10
54.56371762
 20
969.47293153
  0
VERTEX
  8
0
 10
53.65715331
 20
970.15912201
  0
VERTEX
  8
0
 10
52.76318149
 20
970.86163557
  0
VERTEX
  8
0
 10
51.88210699
 20
971.58024211
  0
VERTEX
  8
0
 10
51.01423456
 20
972.31471157
  0
VERTEX
  8
0
 10
50.15986903
 20
973.06481387
  0
VERTEX
  8
0
 10
49.31931519
 20
973.83031894
  0
VERTEX
  8
0
 10
48.49287781
 20
974.61099669
  0
VERTEX
  8
0
 10
47.68086169
 20
975.40661708
  0
VERTEX
  8
0
 10
46.88357164
 20
976.21694999
  0
VERTEX
  8
0
 10
46.10131242
 20
977.04176538
  0
VERTEX
  8
0
 10
45.33438887
 20
977.88083315
  0
VERTEX
  8
0
 10
44.58310573
 20
978.73392325
  0
VERTEX
  8
0
 10
43.84776784
 20
979.60080559
  0
VERTEX
  8
0
 10
43.12867996
 20
980.48125011
  0
VERTEX
  8
0
 10
42.42614689
 20
981.37502671
  0
VERTEX
  8
0
 10
41.74047344
 20
982.28190532
  0
VERTEX
  8
0
 10
40.62314639
 20
983.83923716
  0
VERTEX
  8
0
 10
39.55483476
 20
985.43050135
  0
VERTEX
  8
0
 10
38.53627959
 20
987.05404155
  0
VERTEX
  8
0
 10
37.56822195
 20
988.70820141
  0
VERTEX
  8
0
 10
36.65140289
 20
990.39132459
  0
VERTEX
  8
0
 10
35.78656346
 20
992.10175474
  0
VERTEX
  8
0
 10
34.97444473
 20
993.83783551
  0
VERTEX
  8
0
 10
34.21578775
 20
995.59791057
  0
VERTEX
  8
0
 10
33.51133357
 20
997.38032353
  0
VERTEX
  8
0
 10
32.86182326
 20
999.18341807
  0
VERTEX
  8
0
 10
32.26799787
 20
1001.00553785
  0
VERTEX
  8
0
 10
31.73059845
 20
1002.84502651
  0
VERTEX
  8
0
 10
31.25036608
 20
1004.70022769
  0
VERTEX
  8
0
 10
30.82804178
 20
1006.56948507
  0
VERTEX
  8
0
 10
30.63882675
 20
1007.50886722
  0
VERTEX
  8
0
 10
30.46436664
 20
1008.45114228
  0
VERTEX
  8
0
 10
30.30475408
 20
1009.39610321
  0
VERTEX
  8
0
 10
30.16008170
 20
1010.34354299
  0
VERTEX
  8
0
 10
30.03552082
 20
1011.25294207
 42
-0.53724555
  0
VERTEX
  8
0
 10
35.07921745
 20
1015.61846257
 42
0.86490825
  0
VERTEX
  8
0
 10
53.97293565
 20
1058.24985263
  0
VERTEX
  8
0
 10
115.70647168
 20
1106.29494136
  0
VERTEX
  8
0
 10
170.71829940
 20
1149.10923382
  0
VERTEX
  8
0
 10
172.04047920
 20
1150.76445576
  0
VERTEX
  8
0
 10
173.34332061
 20
1152.43381852
  0
VERTEX
  8
0
 10
174.62655349
 20
1154.11718298
  0
VERTEX
  8
0
 10
175.88990772
 20
1155.81441002
  0
VERTEX
  8
0
 10
177.13311314
 20
1157.52536055
  0
VERTEX
  8
0
 10
178.35589963
 20
1159.24989546
  0
VERTEX
  8
0
 10
179.55799704
 20
1160.98787565
  0
VERTEX
  8
0
 10
180.73913524
 20
1162.73916199
  0
VERTEX
  8
0
 10
181.89904408
 20
1164.50361540
  0
VERTEX
  8
0
 10
183.03745344
 20
1166.28109675
  0
VERTEX
  8
0
 10
184.15409317
 20
1168.07146694
  0
VERTEX
  8
0
 10
185.24869313
 20
1169.87458688
  0
VERTEX
  8
0
 10
186.32098318
 20
1171.69031744
  0
VERTEX
  8
0
 10
187.37069320
 20
1173.51851952
  0
VERTEX
  8
0
 10
188.39755303
 20
1175.35905403
  0
VERTEX
  8
0
 10
189.40129255
 20
1177.21178182
  0
VERTEX
  8
0
 10
190.38164160
 20
1179.07656384
  0
VERTEX
  8
0
 10
191.33833007
 20
1180.95326093
  0
VERTEX
  8
0
 10
192.27108780
 20
1182.84173401
  0
VERTEX
  8
0
 10
193.17964466
 20
1184.74184398
  0
VERTEX
  8
0
 10
194.06373051
 20
1186.65345171
  0
VERTEX
  8
0
 10
194.92307520
 20
1188.57641811
  0
VERTEX
  8
0
 10
195.75740863
 20
1190.51060407
  0
VERTEX
  8
0
 10
196.56646062
 20
1192.45587047
  0
VERTEX
  8
0
 10
197.34996105
 20
1194.41207822
  0
VERTEX
  8
0
 10
198.10763978
 20
1196.37908821
  0
VERTEX
  8
0
 10
198.83922667
 20
1198.35676132
  0
VERTEX
  8
0
 10
199.54445159
 20
1200.34495846
  0
VERTEX
  8
0
 10
200.22304440
 20
1202.34354051
  0
VERTEX
  8
0
 10
200.87473495
 20
1204.35236838
  0
VERTEX
  8
0
 10
201.49925311
 20
1206.37130294
  0
VERTEX
  8
0
 10
202.09632875
 20
1208.40020509
  0
VERTEX
  8
0
 10
203.02606928
 20
1211.73458312
  0
VERTEX
  8
0
 10
203.90667557
 20
1215.07942706
  0
VERTEX
  8
0
 10
204.73930934
 20
1218.43434997
  0
VERTEX
  8
0
 10
205.52513236
 20
1221.79896491
  0
VERTEX
  8
0
 10
206.26530638
 20
1225.17288491
  0
VERTEX
  8
0
 10
206.96099313
 20
1228.55572303
  0
VERTEX
  8
0
 10
207.61335439
 20
1231.94709234
  0
VERTEX
  8
0
 10
208.22355189
 20
1235.34660586
  0
VERTEX
  8
0
 10
208.79274739
 20
1238.75387666
  0
VERTEX
  8
0
 10
209.32210263
 20
1242.16851779
  0
VERTEX
  8
0
 10
209.81277938
 20
1245.59014230
  0
VERTEX
  8
0
 10
210.26593937
 20
1249.01836324
  0
VERTEX
  8
0
 10
210.68274437
 20
1252.45279368
  0
VERTEX
  8
0
 10
211.06435612
 20
1255.89304664
  0
VERTEX
  8
0
 10
211.41193637
 20
1259.33873519
  0
VERTEX
  8
0
 10
211.72664687
 20
1262.78947239
  0
VERTEX
  8
0
 10
212.00964938
 20
1266.24487127
  0
VERTEX
  8
0
 10
212.26210565
 20
1269.70454491
  0
VERTEX
  8
0
 10
212.48517741
 20
1273.16810633
  0
VERTEX
  8
0
 10
212.68002643
 20
1276.63516860
  0
VERTEX
  8
0
 10
212.84781447
 20
1280.10534476
  0
VERTEX
  8
0
 10
212.98970325
 20
1283.57824789
  0
VERTEX
  8
0
 10
213.10685455
 20
1287.05349101
  0
VERTEX
  8
0
 10
213.20043012
 20
1290.53068719
  0
VERTEX
  8
0
 10
213.27159168
 20
1294.00944946
  0
VERTEX
  8
0
 10
213.32150101
 20
1297.48939091
  0
VERTEX
  8
0
 10
213.35131985
 20
1300.97012456
  0
VERTEX
  8
0
 10
213.36220995
 20
1304.45126348
  0
VERTEX
  8
0
 10
213.35533307
 20
1307.93242070
  0
VERTEX
  8
0
 10
213.33185096
 20
1311.41320928
  0
VERTEX
  8
0
 10
213.23971801
 20
1318.37213276
  0
VERTEX
  8
0
 10
213.16638212
 20
1321.54288075
  0
VERTEX
  8
0
 10
213.05535396
 20
1324.71181758
  0
VERTEX
  8
0
 10
212.90608157
 20
1327.87845515
  0
VERTEX
  8
0
 10
212.71801302
 20
1331.04230534
  0
VERTEX
  8
0
 10
212.49059638
 20
1334.20288005
  0
VERTEX
  8
0
 10
212.22327971
 20
1337.35969115
  0
VERTEX
  8
0
 10
211.91551108
 20
1340.51225056
  0
VERTEX
  8
0
 10
211.56673853
 20
1343.66007015
  0
VERTEX
  8
0
 10
211.17641015
 20
1346.80266182
  0
VERTEX
  8
0
 10
210.74397400
 20
1349.93953743
  0
VERTEX
  8
0
 10
210.26887813
 20
1353.07020891
  0
VERTEX
  8
0
 10
209.75057060
 20
1356.19418813
  0
VERTEX
  8
0
 10
209.18849949
 20
1359.31098697
  0
VERTEX
  8
0
 10
208.58211285
 20
1362.42011734
  0
VERTEX
  8
0
 10
207.93085875
 20
1365.52109111
  0
VERTEX
  8
0
 10
207.23418526
 20
1368.61342019
  0
VERTEX
  8
0
 10
172.64394780
 20
1513.58488036
 42
-0.29882803
  0
VERTEX
  8
0
 10
180.09799403
 20
1534.22669276
  0
VERTEX
  8
0
 10
180.46174638
 20
1534.51305314
  0
VERTEX
  8
0
 10
180.83537528
 20
1534.77847669
  0
VERTEX
  8
0
 10
181.21812239
 20
1535.02301845
  0
VERTEX
  8
0
 10
181.60922935
 20
1535.24673344
  0
VERTEX
  8
0
 10
182.00793781
 20
1535.44967671
  0
VERTEX
  8
0
 10
182.41348942
 20
1535.63190329
  0
VERTEX
  8
0
 10
182.82512582
 20
1535.79346821
  0
VERTEX
  8
0
 10
183.24208866
 20
1535.93442651
  0
VERTEX
  8
0
 10
183.66361960
 20
1536.05483323
  0
VERTEX
  8
0
 10
184.08896027
 20
1536.15474340
  0
VERTEX
  8
0
 10
184.51735232
 20
1536.23421206
  0
VERTEX
  8
0
 10
184.94803741
 20
1536.29329424
  0
VERTEX
  8
0
 10
185.38025717
 20
1536.33204499
  0
VERTEX
  8
0
 10
185.81325326
 20
1536.35051932
  0
VERTEX
  8
0
 10
186.24626733
 20
1536.34877229
  0
VERTEX
  8
0
 10
186.67854101
 20
1536.32685893
  0
VERTEX
  8
0
 10
187.10931596
 20
1536.28483426
  0
VERTEX
  8
0
 10
187.53783384
 20
1536.22275333
  0
VERTEX
  8
0
 10
187.96333628
 20
1536.14067117
  0
VERTEX
  8
0
 10
188.38506492
 20
1536.03864282
  0
VERTEX
  8
0
 10
188.80226143
 20
1535.91672332
  0
VERTEX
  8
0
 10
189.21416744
 20
1535.77496769
  0
VERTEX
  8
0
 10
189.62002461
 20
1535.61343098
  0
VERTEX
  8
0
 10
190.01907457
 20
1535.43216822
  0
VERTEX
  8
0
 10
190.41055898
 20
1535.23123444
  0
VERTEX
  8
0
 10
190.79371950
 20
1535.01068468
  0
VERTEX
  8
0
 10
191.16779775
 20
1534.77057399
  0
VERTEX
  8
0
 10
191.53203540
 20
1534.51095738
  0
VERTEX
  8
0
 10
191.88567408
 20
1534.23188990
  0
VERTEX
  8
0
 10
192.22795546
 20
1533.93342659
  0
VERTEX
  8
0
 10
192.55812116
 20
1533.61562248
  0
VERTEX
  8
0
 10
192.87541284
 20
1533.27853260
  0
VERTEX
  8
0
 10
195.08173550
 20
1524.77065620
  0
VERTEX
  8
0
 10
195.46785034
 20
1524.25648142
  0
VERTEX
  8
0
 10
195.87508809
 20
1523.76765956
  0
VERTEX
  8
0
 10
196.30235907
 20
1523.30437574
  0
VERTEX
  8
0
 10
196.74857366
 20
1522.86681503
  0
VERTEX
  8
0
 10
197.21264223
 20
1522.45516254
  0
VERTEX
  8
0
 10
197.69347512
 20
1522.06960335
  0
VERTEX
  8
0
 10
198.18998269
 20
1521.71032258
  0
VERTEX
  8
0
 10
198.70107530
 20
1521.37750530
  0
VERTEX
  8
0
 10
199.22566334
 20
1521.07133662
  0
VERTEX
  8
0
 10
199.76265714
 20
1520.79200163
  0
VERTEX
  8
0
 10
200.31096706
 20
1520.53968543
  0
VERTEX
  8
0
 10
200.86950347
 20
1520.31457311
  0
VERTEX
  8
0
 10
201.43717673
 20
1520.11684977
  0
VERTEX
  8
0
 10
202.01289719
 20
1519.94670050
  0
VERTEX
  8
0
 10
202.59557522
 20
1519.80431040
  0
VERTEX
  8
0
 10
203.18412118
 20
1519.68986456
  0
VERTEX
  8
0
 10
203.77744543
 20
1519.60354809
  0
VERTEX
  8
0
 10
204.37445832
 20
1519.54554607
  0
VERTEX
  8
0
 10
204.97407022
 20
1519.51604359
  0
VERTEX
  8
0
 10
205.57519149
 20
1519.51522576
  0
VERTEX
  8
0
 10
206.17673248
 20
1519.54327767
  0
VERTEX
  8
0
 10
206.77760357
 20
1519.60038442
  0
VERTEX
  8
0
 10
207.37671509
 20
1519.68673109
  0
VERTEX
  8
0
 10
207.97297743
 20
1519.80250280
  0
VERTEX
  8
0
 10
208.56530093
 20
1519.94788463
  0
VERTEX
  8
0
 10
209.15259597
 20
1520.12306167
  0
VERTEX
  8
0
 10
209.73377288
 20
1520.32821902
  0
VERTEX
  8
0
 10
210.30774205
 20
1520.56354178
  0
VERTEX
  8
0
 10
210.87341382
 20
1520.82921505
  0
VERTEX
  8
0
 10
211.42969855
 20
1521.12542392
  0
VERTEX
  8
0
 10
211.97550662
 20
1521.45235347
  0
VERTEX
  8
0
 10
212.50974837
 20
1521.81018881
  0
VERTEX
  8
0
 10
212.91094055
 20
1522.10569590
  0
VERTEX
  8
0
 10
213.29707155
 20
1522.41401091
  0
VERTEX
  8
0
 10
213.66805444
 20
1522.73463262
  0
VERTEX
  8
0
 10
214.02380227
 20
1523.06705984
  0
VERTEX
  8
0
 10
214.36422811
 20
1523.41079135
  0
VERTEX
  8
0
 10
214.68924503
 20
1523.76532594
  0
VERTEX
  8
0
 10
214.99876607
 20
1524.13016241
  0
VERTEX
  8
0
 10
215.29270429
 20
1524.50479955
  0
VERTEX
  8
0
 10
215.57097278
 20
1524.88873613
  0
VERTEX
  8
0
 10
215.83348456
 20
1525.28147097
  0
VERTEX
  8
0
 10
216.08015271
 20
1525.68250284
  0
VERTEX
  8
0
 10
216.31089029
 20
1526.09133054
  0
VERTEX
  8
0
 10
216.52561036
 20
1526.50745286
  0
VERTEX
  8
0
 10
216.72422599
 20
1526.93036860
  0
VERTEX
  8
0
 10
216.90665021
 20
1527.35957653
  0
VERTEX
  8
0
 10
217.07279612
 20
1527.79457546
  0
SEQEND
  0
POLYLINE
  8
METAL_FRAME
 62
256
 66
   1
 39
0.000000
 70
    1
  0
VERTEX
  8
0
 10
298.80718335
 20
1220.26915335
 42
-0.41421356
  0
VERTEX
  8
0
 10
295.33293373
 20
1256.16385477
 42
-0.41421356
  0
VERTEX
  8
0
 10
331.22763514
 20
1259.63810438
  0
VERTEX
  8
0
 10
354.70528026
 20
1240.30419169
 42
-0.41421356
  0
VERTEX
  8
0
 10
358.17952987
 20
1204.40949028
 42
-0.41421356
  0
VERTEX
  8
0
 10
322.28482846
 20
1200.93524067
  0
VERTEX
  8
0
 10
298.80718335
 20
1220.26915335
  0
SEQEND
  0
POLYLINE
  8
METAL_FRAME
 62
256
 66
   1
 39
0.000000
 70
    1
  0
VERTEX
  8
0
 10
1335.41572070
 20
1275.56778591
  0
VERTEX
  8
0
 10
1334.45714149
 20
1265.52768379
  0
VERTEX
  8
0
 10
924.61403940
 20
1268.20449373
  0
VERTEX
  8
0
 10
579.62971651
 20
1264.91557821
 42
-0.68627863
  0
VERTEX
  8
0
 10
573.89926405
 20
1333.99502773
  0
VERTEX
  8
0
 10
895.98233462
 20
1380.38137066
  0
VERTEX
  8
0
 10
898.04152099
 20
1380.70162040
  0
VERTEX
  8
0
 10
900.09297411
 20
1381.06817071
  0
VERTEX
  8
0
 10
902.13569592
 20
1381.48070609
  0
VERTEX
  8
0
 10
904.16868833
 20
1381.93891106
  0
VERTEX
  8
0
 10
906.19095325
 20
1382.44247012
  0
VERTEX
  8
0
 10
908.20149260
 20
1382.99106779
  0
VERTEX
  8
0
 10
910.19930830
 20
1383.58438857
  0
VERTEX
  8
0
 10
912.18340227
 20
1384.22211697
  0
VERTEX
  8
0
 10
914.15277641
 20
1384.90393750
  0
VERTEX
  8
0
 10
916.10643266
 20
1385.62953467
  0
VERTEX
  8
0
 10
918.04337291
 20
1386.39859300
  0
VERTEX
  8
0
 10
919.96259910
 20
1387.21079698
  0
VERTEX
  8
0
 10
921.86311314
 20
1388.06583114
  0
VERTEX
  8
0
 10
923.74391694
 20
1388.96337997
  0
VERTEX
  8
0
 10
925.60401242
 20
1389.90312799
  0
VERTEX
  8
0
 10
927.44240150
 20
1390.88475971
  0
VERTEX
  8
0
 10
929.10758400
 20
1391.82084614
  0
VERTEX
  8
0
 10
930.75308131
 20
1392.79105675
  0
VERTEX
  8
0
 10
932.37825766
 20
1393.79490407
  0
VERTEX
  8
0
 10
933.98247729
 20
1394.83190064
  0
VERTEX
  8
0
 10
935.56510447
 20
1395.90155899
  0
VERTEX
  8
0
 10
937.12550343
 20
1397.00339168
  0
VERTEX
  8
0
 10
938.66303842
 20
1398.13691123
  0
VERTEX
  8
0
 10
940.17707370
 20
1399.30163019
  0
VERTEX
  8
0
 10
941.66697350
 20
1400.49706109
  0
VERTEX
  8
0
 10
943.13210208
 20
1401.72271646
  0
VERTEX
  8
0
 10
944.57182368
 20
1402.97810886
  0
VERTEX
  8
0
 10
945.98550255
 20
1404.26275082
  0
VERTEX
  8
0
 10
947.37250294
 20
1405.57615487
  0
VERTEX
  8
0
 10
948.73218910
 20
1406.91783356
  0
VERTEX
  8
0
 10
950.06392527
 20
1408.28729942
  0
VERTEX
  8
0
 10
951.36707570
 20
1409.68406499
  0
VERTEX
  8
0
 10
952.60829855
 20
1411.07002662
  0
VERTEX
  8
0
 10
953.82155721
 20
1412.48052089
  0
VERTEX
  8
0
 10
955.00641186
 20
1413.91495000
  0
VERTEX
  8
0
 10
956.16242267
 20
1415.37271617
  0
VERTEX
  8
0
 10
957.28914984
 20
1416.85322159
  0
VERTEX
  8
0
 10
958.38615354
 20
1418.35586848
  0
VERTEX
  8
0
 10
959.45299394
 20
1419.88005905
  0
VERTEX
  8
0
 10
960.48923124
 20
1421.42519550
  0
VERTEX
  8
0
 10
961.49442560
 20
1422.99068005
  0
VERTEX
  8
0
 10
962.46813721
 20
1424.57591489
  0
VERTEX
  8
0
 10
963.40992625
 20
1426.18030224
  0
VERTEX
  8
0
 10
964.31935290
 20
1427.80324431
  0
VERTEX
  8
0
 10
965.19597734
 20
1429.44414331
  0
VERTEX
  8
0
 10
966.03935974
 20
1431.10240143
  0
VERTEX
  8
0
 10
966.84906030
 20
1432.77742090
  0
VERTEX
  8
0
 10
967.62463918
 20
1434.46860391
  0
VERTEX
  8
0
 10
968.29864845
 20
1436.01609920
  0
VERTEX
  8
0
 10
968.94459150
 20
1437.57550833
  0
VERTEX
  8
0
 10
969.56228846
 20
1439.14631129
  0
VERTEX
  8
0
 10
970.15155944
 20
1440.72798805
  0
VERTEX
  8
0
 10
970.71222456
 20
1442.32001860
  0
VERTEX
  8
0
 10
971.24410393
 20
1443.92188290
  0
VERTEX
  8
0
 10
971.74701768
 20
1445.53306095
  0
VERTEX
  8
0
 10
972.22078592
 20
1447.15303270
  0
VERTEX
  8
0
 10
972.66522876
 20
1448.78127815
  0
VERTEX
  8
0
 10
973.08016632
 20
1450.41727727
  0
VERTEX
  8
0
 10
973.46541873
 20
1452.06051003
  0
VERTEX
  8
0
 10
973.82080609
 20
1453.71045642
  0
VERTEX
  8
0
 10
974.14614853
 20
1455.36659641
  0
VERTEX
  8
0
 10
974.44126616
 20
1457.02840999
  0
VERTEX
  8
0
 10
974.70597910
 20
1458.69537712
  0
VERTEX
  8
0
 10
974.94010747
 20
1460.36697778
  0
VERTEX
  8
0
 10
984.34705767
 20
1532.27174795
  0
VERTEX
  8
0
 10
993.75544160
 20
1604.17692092
  0
VERTEX
  8
0
 10
1003.15444027
 20
1676.08322881
  0
VERTEX
  8
0
 10
1007.86543926
 20
1712.03354193
  0
VERTEX
  8
0
 10
1014.13706448
 20
1759.97001289
  0
VERTEX
  8
0
 10
1014.71716899
 20
1760.77205757
  0
VERTEX
  8
0
 10
1015.31034862
 20
1761.56428800
  0
VERTEX
  8
0
 10
1015.91640091
 20
1762.34655774
  0
VERTEX
  8
0
 10
1016.53512336
 20
1763.11872035
  0
VERTEX
  8
0
 10
1017.16631351
 20
1763.88062939
  0
VERTEX
  8
0
 10
1017.80976888
 20
1764.63213843
  0
VERTEX
  8
0
 10
1018.46528698
 20
1765.37310102
  0
VERTEX
  8
0
 10
1019.13266534
 20
1766.10337072
  0
VERTEX
  8
0
 10
1019.81170148
 20
1766.82280110
  0
VERTEX
  8
0
 10
1020.50219293
 20
1767.53124571
  0
VERTEX
  8
0
 10
1021.20393720
 20
1768.22855812
  0
VERTEX
  8
0
 10
1021.91673182
 20
1768.91459188
  0
VERTEX
  8
0
 10
1022.64037430
 20
1769.58920055
  0
VERTEX
  8
0
 10
1023.37466218
 20
1770.25223770
  0
VERTEX
  8
0
 10
1024.11939297
 20
1770.90355689
  0
VERTEX
  8
0
 10
1024.87436419
 20
1771.54301167
  0
VERTEX
  8
0
 10
1025.63937337
 20
1772.17045561
  0
VERTEX
  8
0
 10
1026.41421803
 20
1772.78574227
  0
VERTEX
  8
0
 10
1027.19869569
 20
1773.38872520
  0
VERTEX
  8
0
 10
1027.99260387
 20
1773.97925797
  0
VERTEX
  8
0
 10
1028.79574009
 20
1774.55719414
  0
VERTEX
  8
0
 10
1029.60790188
 20
1775.12238727
  0
VERTEX
  8
0
 10
1030.42888675
 20
1775.67469091
  0
VERTEX
  8
0
 10
1031.25849224
 20
1776.21395864
  0
VERTEX
  8
0
 10
1032.09651586
 20
1776.74004400
  0
VERTEX
  8
0
 10
1032.94275513
 20
1777.25280056
  0
VERTEX
  8
0
 10
1033.79700757
 20
1777.75208188
  0
VERTEX
  8
0
 10
1034.65907071
 20
1778.23774153
  0
VERTEX
  8
0
 10
1035.52874208
 20
1778.70963305
  0
VERTEX
  8
0
 10
1036.40581918
 20
1779.16761001
  0
VERTEX
  8
0
 10
1037.29009954
 20
1779.61152598
  0
VERTEX
  8
0
 10
1038.18138069
 20
1780.04123451
  0
VERTEX
  8
0
 10
1039.21398565
 20
1780.51701935
  0
VERTEX
  8
0
 10
1040.25527984
 20
1780.97320313
  0
VERTEX
  8
0
 10
1041.30488506
 20
1781.40973302
  0
VERTEX
  8
0
 10
1042.36242309
 20
1781.82655618
  0
VERTEX
  8
0
 10
1043.42751574
 20
1782.22361977
  0
VERTEX
  8
0
 10
1044.49978479
 20
1782.60087097
  0
VERTEX
  8
0
 10
1045.57885204
 20
1782.95825694
  0
VERTEX
  8
0
 10
1046.66433927
 20
1783.29572485
  0
VERTEX
  8
0
 10
1047.75586828
 20
1783.61322186
  0
VERTEX
  8
0
 10
1048.85306086
 20
1783.91069514
  0
VERTEX
  8
0
 10
1049.95553879
 20
1784.18809186
  0
VERTEX
  8
0
 10
1051.06292388
 20
1784.44535918
  0
VERTEX
  8
0
 10
1052.17483792
 20
1784.68244427
  0
VERTEX
  8
0
 10
1053.29090269
 20
1784.89929430
  0
VERTEX
  8
0
 10
1054.41073998
 20
1785.09585643
  0
VERTEX
  8
0
 10
1055.53397160
 20
1785.27207783
  0
VERTEX
  8
0
 10
1056.66021932
 20
1785.42790566
  0
VERTEX
  8
0
 10
1057.78910495
 20
1785.56328709
  0
VERTEX
  8
0
 10
1058.92025027
 20
1785.67816929
  0
VERTEX
  8
0
 10
1060.05327708
 20
1785.77249943
  0
VERTEX
  8
0
 10
1061.18780716
 20
1785.84622467
  0
VERTEX
  8
0
 10
1062.32346231
 20
1785.89929217
  0
VERTEX
  8
0
 10
1063.45986432
 20
1785.93164911
  0
VERTEX
  8
0
 10
1064.59663499
 20
1785.94324264
  0
VERTEX
  8
0
 10
1065.73339609
 20
1785.93401995
  0
VERTEX
  8
0
 10
1066.86976944
 20
1785.90392819
  0
VERTEX
  8
0
 10
1068.00537680
 20
1785.85291452
  0
VERTEX
  8
0
 10
1069.13983999
 20
1785.78092613
  0
VERTEX
  8
0
 10
1070.27278079
 20
1785.68791016
  0
VERTEX
  8
0
 10
1071.40382099
 20
1785.57381379
  0
VERTEX
  8
0
 10
1072.53258238
 20
1785.43858419
  0
VERTEX
  8
0
 10
1073.65868675
 20
1785.28216852
  0
VERTEX
  8
0
 10
1075.54995618
 20
1784.97103815
  0
VERTEX
  8
0
 10
1077.43056028
 20
1784.60125485
  0
VERTEX
  8
0
 10
1079.29880383
 20
1784.17346583
  0
VERTEX
  8
0
 10
1081.15299161
 20
1783.68831830
  0
VERTEX
  8
0
 10
1082.99142840
 20
1783.14645946
  0
VERTEX
  8
0
 10
1084.81241898
 20
1782.54853652
  0
VERTEX
  8
0
 10
1086.61426813
 20
1781.89519670
  0
VERTEX
  8
0
 10
1088.39528063
 20
1781.18708719
  0
VERTEX
  8
0
 10
1090.15376125
 20
1780.42485522
  0
VERTEX
  8
0
 10
1091.88801477
 20
1779.60914799
  0
VERTEX
  8
0
 10
1093.59634598
 20
1778.74061270
  0
VERTEX
  8
0
 10
1095.27705966
 20
1777.81989657
  0
VERTEX
  8
0
 10
1096.92846057
 20
1776.84764680
  0
VERTEX
  8
0
 10
1098.54885351
 20
1775.82451060
  0
VERTEX
  8
0
 10
1099.34689223
 20
1775.29406235
  0
VERTEX
  8
0
 10
1100.13654324
 20
1774.75113519
  0
VERTEX
  8
0
 10
1100.91759465
 20
1774.19581003
  0
VERTEX
  8
0
 10
1101.68983456
 20
1773.62816776
  0
VERTEX
  8
0
 10
1102.42095466
 20
1773.07320335
 42
-0.53724555
  0
VERTEX
  8
0
 10
1101.94141172
 20
1766.41988211
 42
0.86490825
  0
VERTEX
  8
0
 10
1118.72648046
 20
1722.91506084
  0
VERTEX
  8
0
 10
1109.04728655
 20
1645.28985085
  0
VERTEX
  8
0
 10
1100.42232665
 20
1576.11633789
  0
VERTEX
  8
0
 10
1100.65782301
 20
1574.01099693
  0
VERTEX
  8
0
 10
1100.91699274
 20
1571.90933121
  0
VERTEX
  8
0
 10
1101.19992849
 20
1569.81163011
  0
VERTEX
  8
0
 10
1101.50672290
 20
1567.71818302
  0
VERTEX
  8
0
 10
1101.83746864
 20
1565.62927931
  0
VERTEX
  8
0
 10
1102.19225835
 20
1563.54520836
  0
VERTEX
  8
0
 10
1102.57118470
 20
1561.46625956
  0
VERTEX
  8
0
 10
1102.97434032
 20
1559.39272228
  0
VERTEX
  8
0
 10
1103.40181788
 20
1557.32488590
  0
VERTEX
  8
0
 10
1103.85371002
 20
1555.26303981
  0
VERTEX
  8
0
 10
1104.33010940
 20
1553.20747338
  0
VERTEX
  8
0
 10
1104.83110868
 20
1551.15847599
  0
VERTEX
  8
0
 10
1105.35680050
 20
1549.11633703
  0
VERTEX
  8
0
 10
1105.90727752
 20
1547.08134587
  0
VERTEX
  8
0
 10
1106.48263240
 20
1545.05379189
  0
VERTEX
  8
0
 10
1107.08295777
 20
1543.03396448
  0
VERTEX
  8
0
 10
1107.70834631
 20
1541.02215301
  0
VERTEX
  8
0
 10
1108.35889065
 20
1539.01864687
  0
VERTEX
  8
0
 10
1109.03468346
 20
1537.02373543
  0
VERTEX
  8
0
 10
1109.73581738
 20
1535.03770807
  0
VERTEX
  8
0
 10
1110.46238507
 20
1533.06085418
  0
VERTEX
  8
0
 10
1111.21447919
 20
1531.09346314
  0
VERTEX
  8
0
 10
1111.99219238
 20
1529.13582431
  0
VERTEX
  8
0
 10
1112.79561729
 20
1527.18822709
  0
VERTEX
  8
0
 10
1113.62484659
 20
1525.25096086
  0
VERTEX
  8
0
 10
1114.47997292
 20
1523.32431499
  0
VERTEX
  8
0
 10
1115.36108894
 20
1521.40857887
  0
VERTEX
  8
0
 10
1116.26828730
 20
1519.50404187
  0
VERTEX
  8
0
 10
1117.20166064
 20
1517.61099337
  0
VERTEX
  8
0
 10
1118.16130164
 20
1515.72972276
  0
VERTEX
  8
0
 10
1119.14730293
 20
1513.86051941
  0
VERTEX
  8
0
 10
1120.15975717
 20
1512.00367271
  0
VERTEX
  8
0
 10
1121.86009265
 20
1508.98848556
  0
VERTEX
  8
0
 10
1123.60257181
 20
1506.00064105
  0
VERTEX
  8
0
 10
1125.38609956
 20
1503.03959132
  0
VERTEX
  8
0
 10
1127.20958081
 20
1500.10478850
  0
VERTEX
  8
0
 10
1129.07192046
 20
1497.19568472
  0
VERTEX
  8
0
 10
1130.97202341
 20
1494.31173212
  0
VERTEX
  8
0
 10
1132.90879458
 20
1491.45238282
  0
VERTEX
  8
0
 10
1134.88113885
 20
1488.61708897
  0
VERTEX
  8
0
 10
1136.88796114
 20
1485.80530268
  0
VERTEX
  8
0
 10
1138.92816636
 20
1483.01647610
  0
VERTEX
  8
0
 10
1141.00065940
 20
1480.25006135
  0
VERTEX
  8
0
 10
1143.10434517
 20
1477.50551057
  0
VERTEX
  8
0
 10
1145.23812858
 20
1474.78227588
  0
VERTEX
  8
0
 10
1147.40091452
 20
1472.07980942
  0
VERTEX
  8
0
 10
1149.59160791
 20
1469.39756333
  0
VERTEX
  8
0
 10
1151.80911365
 20
1466.73498973
  0
VERTEX
  8
0
 10
1154.05233664
 20
1464.09154075
  0
VERTEX
  8
0
 10
1156.32018179
 20
1461.46666853
  0
VERTEX
  8
0
 10
1158.61155400
 20
1458.85982520
  0
VERTEX
  8
0
 10
1160.92535818
 20
1456.27046290
  0
VERTEX
  8
0
 10
1163.26049922
 20
1453.69803374
  0
VERTEX
  8
0
 10
1165.61588205
 20
1451.14198987
  0
VERTEX
  8
0
 10
1167.99041155
 20
1448.60178341
  0
VERTEX
  8
0
 10
1170.38299263
 20
1446.07686650
  0
VERTEX
  8
0
 10
1172.79253020
 20
1443.56669128
  0
VERTEX
  8
0
 10
1175.21792917
 20
1441.07070986
  0
VERTEX
  8
0
 10
1177.65809443
 20
1438.58837439
  0
VERTEX
  8
0
 10
1180.11193090
 20
1436.11913699
  0
VERTEX
  8
0
 10
1182.57834347
 20
1433.66244980
  0
VERTEX
  8
0
 10
1185.05623704
 20
1431.21776495
  0
VERTEX
  8
0
 10
1190.04208685
 20
1426.36221080
  0
VERTEX
  8
0
 10
1192.33600056
 20
1424.17200970
  0
VERTEX
  8
0
 10
1194.65528605
 20
1422.00974175
  0
VERTEX
  8
0
 10
1196.99998847
 20
1419.87614237
  0
VERTEX
  8
0
 10
1199.37015294
 20
1417.77194699
  0
VERTEX
  8
0
 10
1201.76582460
 20
1415.69789103
  0
VERTEX
  8
0
 10
1204.18704857
 20
1413.65470992
  0
VERTEX
  8
0
 10
1206.63386999
 20
1411.64313907
  0
VERTEX
  8
0
 10
1209.10633400
 20
1409.66391392
  0
VERTEX
  8
0
 10
1211.60448572
 20
1407.71776989
  0
VERTEX
  8
0
 10
1214.12837028
 20
1405.80544241
  0
VERTEX
  8
0
 10
1216.67803282
 20
1403.92766689
  0
VERTEX
  8
0
 10
1219.25351848
 20
1402.08517877
  0
VERTEX
  8
0
 10
1221.85487237
 20
1400.27871346
  0
VERTEX
  8
0
 10
1224.48213964
 20
1398.50900640
  0
VERTEX
  8
0
 10
1227.13536541
 20
1396.77679301
  0
VERTEX
  8
0
 10
1229.81459482
 20
1395.08280870
  0
VERTEX
  8
0
 10
1356.78388886
 20
1317.03149760
 42
-0.29882803
  0
VERTEX
  8
0
 10
1366.10904775
 20
1297.16472544
  0
VERTEX
  8
0
 10
1366.05432336
 20
1296.70502632
  0
VERTEX
  8
0
 10
1365.97781062
 20
1296.25314800
  0
VERTEX
  8
0
 10
1365.88008468
 20
1295.80958779
  0
VERTEX
  8
0
 10
1365.76172069
 20
1295.37484302
  0
VERTEX
  8
0
 10
1365.62329379
 20
1294.94941100
  0
VERTEX
  8
0
 10
1365.46537915
 20
1294.53378906
  0
VERTEX
  8
0
 10
1365.28855191
 20
1294.12847452
  0
VERTEX
  8
0
 10
1365.09338723
 20
1293.73396469
  0
VERTEX
  8
0
 10
1364.88046025
 20
1293.35075690
  0
VERTEX
  8
0
 10
1364.65034614
 20
1292.97934847
  0
VERTEX
  8
0
 10
1364.40362004
 20
1292.62023672
  0
VERTEX
  8
0
 10
1364.14085711
 20
1292.27391896
  0
VERTEX
  8
0
 10
1363.86263250
 20
1291.94089252
  0
VERTEX
  8
0
 10
1363.56952135
 20
1291.62165472
  0
VERTEX
  8
0
 10
1363.26209883
 20
1291.31670288
  0
VERTEX
  8
0
 10
1362.94094009
 20
1291.02653431
  0
VERTEX
  8
0
 10
1362.60662027
 20
1290.75164635
  0
VERTEX
  8
0
 10
1362.25971453
 20
1290.49253630
  0
VERTEX
  8
0
 10
1361.90079802
 20
1290.24970149
  0
VERTEX
  8
0
 10
1361.53044590
 20
1290.02363924
  0
VERTEX
  8
0
 10
1361.14923331
 20
1289.81484687
  0
VERTEX
  8
0
 10
1360.75773541
 20
1289.62382170
  0
VERTEX
  8
0
 10
1360.35652735
 20
1289.45106105
  0
VERTEX
  8
0
 10
1359.94618429
 20
1289.29706224
  0
VERTEX
  8
0
 10
1359.52728137
 20
1289.16232260
  0
VERTEX
  8
0
 10
1359.10039374
 20
1289.04733943
  0
VERTEX
  8
0
 10
1358.66609657
 20
1288.95261006
  0
VERTEX
  8
0
 10
1358.22496500
 20
1288.87863181
  0
VERTEX
  8
0
 10
1357.77757418
 20
1288.82590201
  0
VERTEX
  8
0
 10
1357.32449927
 20
1288.79491796
  0
VERTEX
  8
0
 10
1356.86631542
 20
1288.78617700
  0
VERTEX
  8
0
 10
1356.40359778
 20
1288.80017644
  0
VERTEX
  8
0
 10
1348.82751497
 20
1293.25604782
  0
VERTEX
  8
0
 10
1348.19091407
 20
1293.34659987
  0
VERTEX
  8
0
 10
1347.55730425
 20
1293.40428855
  0
VERTEX
  8
0
 10
1346.92758691
 20
1293.42975347
  0
VERTEX
  8
0
 10
1346.30266340
 20
1293.42363425
  0
VERTEX
  8
0
 10
1345.68343510
 20
1293.38657049
  0
VERTEX
  8
0
 10
1345.07080339
 20
1293.31920181
  0
VERTEX
  8
0
 10
1344.46566965
 20
1293.22216781
  0
VERTEX
  8
0
 10
1343.86893524
 20
1293.09610811
  0
VERTEX
  8
0
 10
1343.28150153
 20
1292.94166230
  0
VERTEX
  8
0
 10
1342.70426991
 20
1292.75947001
  0
VERTEX
  8
0
 10
1342.13814175
 20
1292.55017084
  0
VERTEX
  8
0
 10
1341.58401842
 20
1292.31440441
  0
VERTEX
  8
0
 10
1341.04280130
 20
1292.05281031
  0
VERTEX
  8
0
 10
1340.51539175
 20
1291.76602817
  0
VERTEX
  8
0
 10
1340.00269116
 20
1291.45469759
  0
VERTEX
  8
0
 10
1339.50560089
 20
1291.11945818
  0
VERTEX
  8
0
 10
1339.02502233
 20
1290.76094954
  0
VERTEX
  8
0
 10
1338.56185684
 20
1290.37981130
  0
VERTEX
  8
0
 10
1338.11700580
 20
1289.97668306
  0
VERTEX
  8
0
 10
1337.69137058
 20
1289.55220443
  0
VERTEX
  8
0
 10
1337.28585256
 20
1289.10701502
  0
VERTEX
  8
0
 10
1336.90135311
 20
1288.64175443
  0
VERTEX
  8
0
 10
1336.53877361
 20
1288.15706229
  0
VERTEX
  8
0
 10
1336.19901543
 20
1287.65357819
  0
VERTEX
  8
0
 10
1335.88297994
 20
1287.13194175
  0
VERTEX
  8
0
 10
1335.59156851
 20
1286.59279257
  0
VERTEX
  8
0
 10
1335.32568253
 20
1286.03677028
  0
VERTEX
  8
0
 10
1335.08622336
 20
1285.46451447
  0
VERTEX
  8
0
 10
1334.87409238
 20
1284.87666476
  0
VERTEX
  8
0
 10
1334.69019097
 20
1284.27386075
  0
VERTEX
  8
0
 10
1334.53542049
 20
1283.65674206
  0
VERTEX
  8
0
 10
1334.41068232
 20
1283.02594830
  0
VERTEX
  8
0
 10
1334.33595168
 20
1282.53330752
  0
VERTEX
  8
0
 10
1334.28092746
 20
1282.04226004
  0
VERTEX
  8
0
 10
1334.24531673
 20
1281.55322174
  0
VERTEX
  8
0
 10
1334.22882657
 20
1281.06660849
  0
VERTEX
  8
0
 10
1334.23116403
 20
1280.58283619
  0
VERTEX
  8
0
 10
1334.25203618
 20
1280.10232071
  0
VERTEX
  8
0
 10
1334.29115009
 20
1279.62547794
  0
VERTEX
  8
0
 10
1334.34821284
 20
1279.15272377
  0
VERTEX
  8
0
 10
1334.42293147
 20
1278.68447408
  0
VERTEX
  8
0
 10
1334.51501308
 20
1278.22114475
  0
VERTEX
  8
0
 10
1334.62416471
 20
1277.76315167
  0
VERTEX
  8
0
 10
1334.75009344
 20
1277.31091072
  0
VERTEX
  8
0
 10
1334.89250634
 20
1276.86483779
  0
VERTEX
  8
0
 10
1335.05111047
 20
1276.42534875
  0
VERTEX
  8
0
 10
1335.22561290
 20
1275.99285950
  0
VERTEX
  8
0
 10
1335.41572070
 20
1275.56778591
  0
SEQEND
  0
POLYLINE
  8
METAL_FRAME
 62
256
 66
   1
 39
0.000000
 70
    1
  0
VERTEX
  8
0
 10
1060.16746987
 20
1435.22615781
 42
-0.41421356
  0
VERTEX
  8
0
 10
1088.00552211
 20
1412.30143650
 42
-0.41421356
  0
VERTEX
  8
0
 10
1065.08080080
 20
1384.46338425
  0
VERTEX
  8
0
 10
1034.80845796
 20
1381.53332295
 42
-0.41421356
  0
VERTEX
  8
0
 10
1006.97040572
 20
1404.45804427
 42
-0.41421356
  0
VERTEX
  8
0
 10
1029.89512704
 20
1432.29609651
  0
VERTEX
  8
0
 10
1060.16746987
 20
1435.22615781
  0
SEQEND
  0
POLYLINE
  8
METAL_FRAME
 62
256
 66
   1
 39
0.000000
 70
    1
  0
VERTEX
  8
0
 10
1788.59437437
 20
1851.74446085
  0
VERTEX
  8
0
 10
1798.63447649
 20
1850.78588164
  0
VERTEX
  8
0
 10
1795.95766655
 20
1440.94277955
  0
VERTEX
  8
0
 10
1799.24658207
 20
1095.95845666
 42
-0.68627863
  0
VERTEX
  8
0
 10
1730.16713255
 20
1090.22800420
  0
VERTEX
  8
0
 10
1683.78078962
 20
1412.31107477
  0
VERTEX
  8
0
 10
1683.46053988
 20
1414.37026114
  0
VERTEX
  8
0
 10
1683.09398957
 20
1416.42171426
  0
VERTEX
  8
0
 10
1682.68145419
 20
1418.46443607
  0
VERTEX
  8
0
 10
1682.22324922
 20
1420.49742848
  0
VERTEX
  8
0
 10
1681.71969016
 20
1422.51969340
  0
VERTEX
  8
0
 10
1681.17109249
 20
1424.53023275
  0
VERTEX
  8
0
 10
1680.57777171
 20
1426.52804845
  0
VERTEX
  8
0
 10
1679.94004331
 20
1428.51214242
  0
VERTEX
  8
0
 10
1679.25822278
 20
1430.48151656
  0
VERTEX
  8
0
 10
1678.53262561
 20
1432.43517281
  0
VERTEX
  8
0
 10
1677.76356728
 20
1434.37211306
  0
VERTEX
  8
0
 10
1676.95136330
 20
1436.29133925
  0
VERTEX
  8
0
 10
1676.09632914
 20
1438.19185329
  0
VERTEX
  8
0
 10
1675.19878031
 20
1440.07265709
  0
VERTEX
  8
0
 10
1674.25903229
 20
1441.93275257
  0
VERTEX
  8
0
 10
1673.27740057
 20
1443.77114165
  0
VERTEX
  8
0
 10
1672.34131414
 20
1445.43632415
  0
VERTEX
  8
0
 10
1671.37110353
 20
1447.08182146
  0
VERTEX
  8
0
 10
1670.36725621
 20
1448.70699781
  0
VERTEX
  8
0
 10
1669.33025964
 20
1450.31121744
  0
VERTEX
  8
0
 10
1668.26060129
 20
1451.89384462
  0
VERTEX
  8
0
 10
1667.15876860
 20
1453.45424358
  0
VERTEX
  8
0
 10
1666.02524905
 20
1454.99177857
  0
VERTEX
  8
0
 10
1664.86053009
 20
1456.50581385
  0
VERTEX
  8
0
 10
1663.66509919
 20
1457.99571365
  0
VERTEX
  8
0
 10
1662.43944382
 20
1459.46084223
  0
VERTEX
  8
0
 10
1661.18405142
 20
1460.90056383
  0
VERTEX
  8
0
 10
1659.89940946
 20
1462.31424270
  0
VERTEX
  8
0
 10
1658.58600541
 20
1463.70124309
  0
VERTEX
  8
0
 10
1657.24432672
 20
1465.06092925
  0
VERTEX
  8
0
 10
1655.87486086
 20
1466.39266542
  0
VERTEX
  8
0
 10
1654.47809529
 20
1467.69581585
  0
VERTEX
  8
0
 10
1653.09213366
 20
1468.93703870
  0
VERTEX
  8
0
 10
1651.68163939
 20
1470.15029736
  0
VERTEX
  8
0
 10
1650.24721028
 20
1471.33515201
  0
VERTEX
  8
0
 10
1648.78944411
 20
1472.49116282
  0
VERTEX
  8
0
 10
1647.30893869
 20
1473.61788999
  0
VERTEX
  8
0
 10
1645.80629180
 20
1474.71489369
  0
VERTEX
  8
0
 10
1644.28210123
 20
1475.78173409
  0
VERTEX
  8
0
 10
1642.73696478
 20
1476.81797139
  0
VERTEX
  8
0
 10
1641.17148023
 20
1477.82316575
  0
VERTEX
  8
0
 10
1639.58624539
 20
1478.79687736
  0
VERTEX
  8
0
 10
1637.98185804
 20
1479.73866640
  0
VERTEX
  8
0
 10
1636.35891597
 20
1480.64809305
  0
VERTEX
  8
0
 10
1634.71801697
 20
1481.52471749
  0
VERTEX
  8
0
 10
1633.05975885
 20
1482.36809989
  0
VERTEX
  8
0
 10
1631.38473938
 20
1483.17780045
  0
VERTEX
  8
0
 10
1629.69355637
 20
1483.95337933
  0
VERTEX
  8
0
 10
1628.14606108
 20
1484.62738860
  0
VERTEX
  8
0
 10
1626.58665195
 20
1485.27333165
  0
VERTEX
  8
0
 10
1625.01584899
 20
1485.89102861
  0
VERTEX
  8
0
 10
1623.43417223
 20
1486.48029959
  0
VERTEX
  8
0
 10
1621.84214168
 20
1487.04096471
  0
VERTEX
  8
0
 10
1620.24027738
 20
1487.57284408
  0
VERTEX
  8
0
 10
1618.62909933
 20
1488.07575783
  0
VERTEX
  8
0
 10
1617.00912758
 20
1488.54952607
  0
VERTEX
  8
0
 10
1615.38088213
 20
1488.99396891
  0
VERTEX
  8
0
 10
1613.74488301
 20
1489.40890647
  0
VERTEX
  8
0
 10
1612.10165025
 20
1489.79415888
  0
VERTEX
  8
0
 10
1610.45170386
 20
1490.14954624
  0
VERTEX
  8
0
 10
1608.79556387
 20
1490.47488868
  0
VERTEX
  8
0
 10
1607.13375029
 20
1490.77000631
  0
VERTEX
  8
0
 10
1605.46678316
 20
1491.03471925
  0
VERTEX
  8
0
 10
1603.79518250
 20
1491.26884762
  0
VERTEX
  8
0
 10
1531.89041233
 20
1500.67579782
  0
VERTEX
  8
0
 10
1459.98523936
 20
1510.08418175
  0
VERTEX
  8
0
 10
1388.07893147
 20
1519.48318042
  0
VERTEX
  8
0
 10
1352.12861835
 20
1524.19417941
  0
VERTEX
  8
0
 10
1304.19214739
 20
1530.46580463
  0
VERTEX
  8
0
 10
1303.39010271
 20
1531.04590914
  0
VERTEX
  8
0
 10
1302.59787228
 20
1531.63908877
  0
VERTEX
  8
0
 10
1301.81560254
 20
1532.24514106
  0
VERTEX
  8
0
 10
1301.04343993
 20
1532.86386351
  0
VERTEX
  8
0
 10
1300.28153089
 20
1533.49505366
  0
VERTEX
  8
0
 10
1299.53002185
 20
1534.13850903
  0
VERTEX
  8
0
 10
1298.78905926
 20
1534.79402713
  0
VERTEX
  8
0
 10
1298.05878956
 20
1535.46140549
  0
VERTEX
  8
0
 10
1297.33935918
 20
1536.14044163
  0
VERTEX
  8
0
 10
1296.63091457
 20
1536.83093308
  0
VERTEX
  8
0
 10
1295.93360216
 20
1537.53267735
  0
VERTEX
  8
0
 10
1295.24756840
 20
1538.24547197
  0
VERTEX
  8
0
 10
1294.57295973
 20
1538.96911445
  0
VERTEX
  8
0
 10
1293.90992258
 20
1539.70340233
  0
VERTEX
  8
0
 10
1293.25860339
 20
1540.44813312
  0
VERTEX
  8
0
 10
1292.61914861
 20
1541.20310434
  0
VERTEX
  8
0
 10
1291.99170467
 20
1541.96811352
  0
VERTEX
  8
0
 10
1291.37641801
 20
1542.74295818
  0
VERTEX
  8
0
 10
1290.77343508
 20
1543.52743584
  0
VERTEX
  8
0
 10
1290.18290231
 20
1544.32134402
  0
VERTEX
  8
0
 10
1289.60496614
 20
1545.12448024
  0
VERTEX
  8
0
 10
1289.03977301
 20
1545.93664203
  0
VERTEX
  8
0
 10
1288.48746937
 20
1546.75762690
  0
VERTEX
  8
0
 10
1287.94820164
 20
1547.58723239
  0
VERTEX
  8
0
 10
1287.42211628
 20
1548.42525601
  0
VERTEX
  8
0
 10
1286.90935972
 20
1549.27149528
  0
VERTEX
  8
0
 10
1286.41007840
 20
1550.12574772
  0
VERTEX
  8
0
 10
1285.92441875
 20
1550.98781086
  0
VERTEX
  8
0
 10
1285.45252723
 20
1551.85748223
  0
VERTEX
  8
0
 10
1284.99455027
 20
1552.73455933
  0
VERTEX
  8
0
 10
1284.55063430
 20
1553.61883969
  0
VERTEX
  8
0
 10
1284.12092577
 20
1554.51012084
  0
VERTEX
  8
0
 10
1283.64514093
 20
1555.54272580
  0
VERTEX
  8
0
 10
1283.18895715
 20
1556.58401999
  0
VERTEX
  8
0
 10
1282.75242726
 20
1557.63362521
  0
VERTEX
  8
0
 10
1282.33560410
 20
1558.69116324
  0
VERTEX
  8
0
 10
1281.93854051
 20
1559.75625589
  0
VERTEX
  8
0
 10
1281.56128931
 20
1560.82852494
  0
VERTEX
  8
0
 10
1281.20390334
 20
1561.90759219
  0
VERTEX
  8
0
 10
1280.86643543
 20
1562.99307942
  0
VERTEX
  8
0
 10
1280.54893842
 20
1564.08460843
  0
VERTEX
  8
0
 10
1280.25146514
 20
1565.18180101
  0
VERTEX
  8
0
 10
1279.97406842
 20
1566.28427894
  0
VERTEX
  8
0
 10
1279.71680110
 20
1567.39166403
  0
VERTEX
  8
0
 10
1279.47971601
 20
1568.50357807
  0
VERTEX
  8
0
 10
1279.26286598
 20
1569.61964284
  0
VERTEX
  8
0
 10
1279.06630385
 20
1570.73948013
  0
VERTEX
  8
0
 10
1278.89008245
 20
1571.86271175
  0
VERTEX
  8
0
 10
1278.73425462
 20
1572.98895947
  0
VERTEX
  8
0
 10
1278.59887319
 20
1574.11784510
  0
VERTEX
  8
0
 10
1278.48399099
 20
1575.24899042
  0
VERTEX
  8
0
 10
1278.38966085
 20
1576.38201723
  0
VERTEX
  8
0
 10
1278.31593561
 20
1577.51654731
  0
VERTEX
  8
0
 10
1278.26286811
 20
1578.65220246
  0
VERTEX
  8
0
 10
1278.23051117
 20
1579.78860447
  0
VERTEX
  8
0
 10
1278.21891764
 20
1580.92537514
  0
VERTEX
  8
0
 10
1278.22814033
 20
1582.06213624
  0
VERTEX
  8
0
 10
1278.25823209
 20
1583.19850959
  0
VERTEX
  8
0
 10
1278.30924576
 20
1584.33411695
  0
VERTEX
  8
0
 10
1278.38123415
 20
1585.46858014
  0
VERTEX
  8
0
 10
1278.47425012
 20
1586.60152094
  0
VERTEX
  8
0
 10
1278.58834649
 20
1587.73256114
  0
VERTEX
  8
0
 10
1278.72357609
 20
1588.86132253
  0
VERTEX
  8
0
 10
1278.87999176
 20
1589.98742690
  0
VERTEX
  8
0
 10
1279.19112213
 20
1591.87869633
  0
VERTEX
  8
0
 10
1279.56090543
 20
1593.75930043
  0
VERTEX
  8
0
 10
1279.98869445
 20
1595.62754398
  0
VERTEX
  8
0
 10
1280.47384198
 20
1597.48173176
  0
VERTEX
  8
0
 10
1281.01570082
 20
1599.32016855
  0
VERTEX
  8
0
 10
1281.61362376
 20
1601.14115913
  0
VERTEX
  8
0
 10
1282.26696358
 20
1602.94300828
  0
VERTEX
  8
0
 10
1282.97507309
 20
1604.72402078
  0
VERTEX
  8
0
 10
1283.73730506
 20
1606.48250140
  0
VERTEX
  8
0
 10
1284.55301229
 20
1608.21675492
  0
VERTEX
  8
0
 10
1285.42154758
 20
1609.92508613
  0
VERTEX
  8
0
 10
1286.34226371
 20
1611.60579981
  0
VERTEX
  8
0
 10
1287.31451348
 20
1613.25720072
  0
VERTEX
  8
0
 10
1288.33764968
 20
1614.87759366
  0
VERTEX
  8
0
 10
1288.86809793
 20
1615.67563238
  0
VERTEX
  8
0
 10
1289.41102509
 20
1616.46528339
  0
VERTEX
  8
0
 10
1289.96635025
 20
1617.24633480
  0
VERTEX
  8
0
 10
1290.53399252
 20
1618.01857471
  0
VERTEX
  8
0
 10
1291.08895693
 20
1618.74969481
 42
-0.53724555
  0
VERTEX
  8
0
 10
1297.74227817
 20
1618.27015187
 42
0.86490825
  0
VERTEX
  8
0
 10
1341.24709944
 20
1635.05522061
  0
VERTEX
  8
0
 10
1418.87230943
 20
1625.37602670
  0
VERTEX
  8
0
 10
1488.04582239
 20
1616.75106680
  0
VERTEX
  8
0
 10
1490.15116335
 20
1616.98656316
  0
VERTEX
  8
0
 10
1492.25282907
 20
1617.24573289
  0
VERTEX
  8
0
 10
1494.35053017
 20
1617.52866864
  0
VERTEX
  8
0
 10
1496.44397726
 20
1617.83546305
  0
VERTEX
  8
0
 10
1498.53288097
 20
1618.16620879
  0
VERTEX
  8
0
 10
1500.61695192
 20
1618.52099850
  0
VERTEX
  8
0
 10
1502.69590072
 20
1618.89992485
  0
VERTEX
  8
0
 10
1504.76943800
 20
1619.30308047
  0
VERTEX
  8
0
 10
1506.83727438
 20
1619.73055803
  0
VERTEX
  8
0
 10
1508.89912047
 20
1620.18245017
  0
VERTEX
  8
0
 10
1510.95468690
 20
1620.65884955
  0
VERTEX
  8
0
 10
1513.00368429
 20
1621.15984883
  0
VERTEX
  8
0
 10
1515.04582325
 20
1621.68554065
  0
VERTEX
  8
0
 10
1517.08081441
 20
1622.23601767
  0
VERTEX
  8
0
 10
1519.10836839
 20
1622.81137255
  0
VERTEX
  8
0
 10
1521.12819580
 20
1623.41169792
  0
VERTEX
  8
0
 10
1523.14000727
 20
1624.03708646
  0
VERTEX
  8
0
 10
1525.14351341
 20
1624.68763080
  0
VERTEX
  8
0
 10
1527.13842485
 20
1625.36342361
  0
VERTEX
  8
0
 10
1529.12445221
 20
1626.06455753
  0
VERTEX
  8
0
 10
1531.10130610
 20
1626.79112522
  0
VERTEX
  8
0
 10
1533.06869714
 20
1627.54321934
  0
VERTEX
  8
0
 10
1535.02633597
 20
1628.32093253
  0
VERTEX
  8
0
 10
1536.97393319
 20
1629.12435744
  0
VERTEX
  8
0
 10
1538.91119942
 20
1629.95358674
  0
VERTEX
  8
0
 10
1540.83784529
 20
1630.80871307
  0
VERTEX
  8
0
 10
1542.75358141
 20
1631.68982909
  0
VERTEX
  8
0
 10
1544.65811841
 20
1632.59702745
  0
VERTEX
  8
0
 10
1546.55116691
 20
1633.53040079
  0
VERTEX
  8
0
 10
1548.43243752
 20
1634.49004179
  0
VERTEX
  8
0
 10
1550.30164087
 20
1635.47604308
  0
VERTEX
  8
0
 10
1552.15848757
 20
1636.48849732
  0
VERTEX
  8
0
 10
1555.17367472
 20
1638.18883280
  0
VERTEX
  8
0
 10
1558.16151923
 20
1639.93131196
  0
VERTEX
  8
0
 10
1561.12256896
 20
1641.71483971
  0
VERTEX
  8
0
 10
1564.05737178
 20
1643.53832096
  0
VERTEX
  8
0
 10
1566.96647556
 20
1645.40066061
  0
VERTEX
  8
0
 10
1569.85042816
 20
1647.30076356
  0
VERTEX
  8
0
 10
1572.70977746
 20
1649.23753473
  0
VERTEX
  8
0
 10
1575.54507131
 20
1651.20987900
  0
VERTEX
  8
0
 10
1578.35685760
 20
1653.21670129
  0
VERTEX
  8
0
 10
1581.14568418
 20
1655.25690651
  0
VERTEX
  8
0
 10
1583.91209893
 20
1657.32939955
  0
VERTEX
  8
0
 10
1586.65664971
 20
1659.43308532
  0
VERTEX
  8
0
 10
1589.37988440
 20
1661.56686873
  0
VERTEX
  8
0
 10
1592.08235086
 20
1663.72965467
  0
VERTEX
  8
0
 10
1594.76459695
 20
1665.92034806
  0
VERTEX
  8
0
 10
1597.42717055
 20
1668.13785380
  0
VERTEX
  8
0
 10
1600.07061953
 20
1670.38107679
  0
VERTEX
  8
0
 10
1602.69549175
 20
1672.64892194
  0
VERTEX
  8
0
 10
1605.30233508
 20
1674.94029415
  0
VERTEX
  8
0
 10
1607.89169738
 20
1677.25409833
  0
VERTEX
  8
0
 10
1610.46412654
 20
1679.58923937
  0
VERTEX
  8
0
 10
1613.02017041
 20
1681.94462220
  0
VERTEX
  8
0
 10
1615.56037687
 20
1684.31915170
  0
VERTEX
  8
0
 10
1618.08529378
 20
1686.71173278
  0
VERTEX
  8
0
 10
1620.59546900
 20
1689.12127035
  0
VERTEX
  8
0
 10
1623.09145042
 20
1691.54666932
  0
VERTEX
  8
0
 10
1625.57378589
 20
1693.98683458
  0
VERTEX
  8
0
 10
1628.04302329
 20
1696.44067105
  0
VERTEX
  8
0
 10
1630.49971048
 20
1698.90708362
  0
VERTEX
  8
0
 10
1632.94439533
 20
1701.38497719
  0
VERTEX
  8
0
 10
1637.79994948
 20
1706.37082700
  0
VERTEX
  8
0
 10
1639.99015058
 20
1708.66474071
  0
VERTEX
  8
0
 10
1642.15241853
 20
1710.98402620
  0
VERTEX
  8
0
 10
1644.28601791
 20
1713.32872862
  0
VERTEX
  8
0
 10
1646.39021329
 20
1715.69889309
  0
VERTEX
  8
0
 10
1648.46426925
 20
1718.09456475
  0
VERTEX
  8
0
 10
1650.50745036
 20
1720.51578872
  0
VERTEX
  8
0
 10
1652.51902121
 20
1722.96261014
  0
VERTEX
  8
0
 10
1654.49824636
 20
1725.43507415
  0
VERTEX
  8
0
 10
1656.44439039
 20
1727.93322587
  0
VERTEX
  8
0
 10
1658.35671787
 20
1730.45711043
  0
VERTEX
  8
0
 10
1660.23449339
 20
1733.00677297
  0
VERTEX
  8
0
 10
1662.07698151
 20
1735.58225863
  0
VERTEX
  8
0
 10
1663.88344682
 20
1738.18361252
  0
VERTEX
  8
0
 10
1665.65315388
 20
1740.81087979
  0
VERTEX
  8
0
 10
1667.38536727
 20
1743.46410556
  0
VERTEX
  8
0
 10
1669.07935158
 20
1746.14333497
  0
VERTEX
  8
0
 10
1747.13066268
 20
1873.11262901
 42
-0.29882803
  0
VERTEX
  8
0
 10
1766.99743484
 20
1882.43778790
  0
VERTEX
  8
0
 10
1767.45713396
 20
1882.38306351
  0
VERTEX
  8
0
 10
1767.90901228
 20
1882.30655077
  0
VERTEX
  8
0
 10
1768.35257249
 20
1882.20882483
  0
VERTEX
  8
0
 10
1768.78731726
 20
1882.09046084
  0
VERTEX
  8
0
 10
1769.21274928
 20
1881.95203394
  0
VERTEX
  8
0
 10
1769.62837122
 20
1881.79411930
  0
VERTEX
  8
0
 10
1770.03368576
 20
1881.61729206
  0
VERTEX
  8
0
 10
1770.42819559
 20
1881.42212738
  0
VERTEX
  8
0
 10
1770.81140338
 20
1881.20920040
  0
VERTEX
  8
0
 10
1771.18281181
 20
1880.97908629
  0
VERTEX
  8
0
 10
1771.54192356
 20
1880.73236019
  0
VERTEX
  8
0
 10
1771.88824132
 20
1880.46959726
  0
VERTEX
  8
0
 10
1772.22126776
 20
1880.19137265
  0
VERTEX
  8
0
 10
1772.54050556
 20
1879.89826150
  0
VERTEX
  8
0
 10
1772.84545740
 20
1879.59083898
  0
VERTEX
  8
0
 10
1773.13562597
 20
1879.26968024
  0
VERTEX
  8
0
 10
1773.41051393
 20
1878.93536042
  0
VERTEX
  8
0
 10
1773.66962398
 20
1878.58845468
  0
VERTEX
  8
0
 10
1773.91245879
 20
1878.22953817
  0
VERTEX
  8
0
 10
1774.13852104
 20
1877.85918605
  0
VERTEX
  8
0
 10
1774.34731341
 20
1877.47797346
  0
VERTEX
  8
0
 10
1774.53833858
 20
1877.08647556
  0
VERTEX
  8
0
 10
1774.71109923
 20
1876.68526750
  0
VERTEX
  8
0
 10
1774.86509804
 20
1876.27492444
  0
VERTEX
  8
0
 10
1774.99983768
 20
1875.85602152
  0
VERTEX
  8
0
 10
1775.11482085
 20
1875.42913389
  0
VERTEX
  8
0
 10
1775.20955022
 20
1874.99483672
  0
VERTEX
  8
0
 10
1775.28352847
 20
1874.55370515
  0
VERTEX
  8
0
 10
1775.33625827
 20
1874.10631433
  0
VERTEX
  8
0
 10
1775.36724232
 20
1873.65323942
  0
VERTEX
  8
0
 10
1775.37598328
 20
1873.19505557
  0
VERTEX
  8
0
 10
1775.36198384
 20
1872.73233793
  0
VERTEX
  8
0
 10
1770.90611246
 20
1865.15625512
  0
VERTEX
  8
0
 10
1770.81556041
 20
1864.51965422
  0
VERTEX
  8
0
 10
1770.75787173
 20
1863.88604440
  0
VERTEX
  8
0
 10
1770.73240681
 20
1863.25632706
  0
VERTEX
  8
0
 10
1770.73852603
 20
1862.63140355
  0
VERTEX
  8
0
 10
1770.77558979
 20
1862.01217525
  0
VERTEX
  8
0
 10
1770.84295847
 20
1861.39954354
  0
VERTEX
  8
0
 10
1770.93999247
 20
1860.79440980
  0
VERTEX
  8
0
 10
1771.06605217
 20
1860.19767539
  0
VERTEX
  8
0
 10
1771.22049798
 20
1859.61024168
  0
VERTEX
  8
0
 10
1771.40269027
 20
1859.03301006
  0
VERTEX
  8
0
 10
1771.61198944
 20
1858.46688190
  0
VERTEX
  8
0
 10
1771.84775587
 20
1857.91275857
  0
VERTEX
  8
0
 10
1772.10934997
 20
1857.37154145
  0
VERTEX
  8
0
 10
1772.39613211
 20
1856.84413190
  0
VERTEX
  8
0
 10
1772.70746269
 20
1856.33143131
  0
VERTEX
  8
0
 10
1773.04270210
 20
1855.83434104
  0
VERTEX
  8
0
 10
1773.40121074
 20
1855.35376248
  0
VERTEX
  8
0
 10
1773.78234898
 20
1854.89059699
  0
VERTEX
  8
0
 10
1774.18547722
 20
1854.44574595
  0
VERTEX
  8
0
 10
1774.60995585
 20
1854.02011073
  0
VERTEX
  8
0
 10
1775.05514526
 20
1853.61459271
  0
VERTEX
  8
0
 10
1775.52040585
 20
1853.23009326
  0
VERTEX
  8
0
 10
1776.00509799
 20
1852.86751376
  0
VERTEX
  8
0
 10
1776.50858209
 20
1852.52775558
  0
VERTEX
  8
0
 10
1777.03021853
 20
1852.21172009
  0
VERTEX
  8
0
 10
1777.56936771
 20
1851.92030866
  0
VERTEX
  8
0
 10
1778.12539000
 20
1851.65442268
  0
VERTEX
  8
0
 10
1778.69764581
 20
1851.41496351
  0
VERTEX
  8
0
 10
1779.28549552
 20
1851.20283253
  0
VERTEX
  8
0
 10
1779.88829953
 20
1851.01893112
  0
VERTEX
  8
0
 10
1780.50541822
 20
1850.86416064
  0
VERTEX
  8
0
 10
1781.13621198
 20
1850.73942247
  0
VERTEX
  8
0
 10
1781.62885276
 20
1850.66469183
  0
VERTEX
  8
0
 10
1782.11990024
 20
1850.60966761
  0
VERTEX
  8
0
 10
1782.60893854
 20
1850.57405688
  0
VERTEX
  8
0
 10
1783.09555179
 20
1850.55756672
  0
VERTEX
  8
0
 10
1783.57932409
 20
1850.55990418
  0
VERTEX
  8
0
 10
1784.05983957
 20
1850.58077633
  0
VERTEX
  8
0
 10
1784.53668234
 20
1850.61989024
  0
VERTEX
  8
0
 10
1785.00943651
 20
1850.67695299
  0
VERTEX
  8
0
 10
1785.47768620
 20
1850.75167162
  0
VERTEX
  8
0
 10
1785.94101553
 20
1850.84375323
  0
VERTEX
  8
0
 10
1786.39900861
 20
1850.95290486
  0
VERTEX
  8
0
 10
1786.85124956
 20
1851.07883359
  0
VERTEX
  8
0
 10
1787.29732249
 20
1851.22124649
  0
VERTEX
  8
0
 10
1787.73681153
 20
1851.37985062
  0
VERTEX
  8
0
 10
1788.16930078
 20
1851.55435305
  0
VERTEX
  8
0
 10
1788.59437437
 20
1851.74446085
  0
SEQEND
  0
POLYLINE
  8
METAL_FRAME
 62
256
 66
   1
 39
0.000000
 70
    1
  0
VERTEX
  8
0
 10
1628.93600247
 20
1576.49621002
 42
-0.41421356
  0
VERTEX
  8
0
 10
1651.86072379
 20
1604.33426227
 42
-0.41421356
  0
VERTEX
  8
0
 10
1679.69877603
 20
1581.40954095
  0
VERTEX
  8
0
 10
1682.62883733
 20
1551.13719811
 42
-0.41421356
  0
VERTEX
  8
0
 10
1659.70411601
 20
1523.29914587
 42
-0.41421356
  0
VERTEX
  8
0
 10
1631.86606377
 20
1546.22386719
  0
VERTEX
  8
0
 10
1628.93600247
 20
1576.49621002
  0
SEQEND
  0
POLYLINE
  8
METAL_FRAME
 62
256
 66
   1
 39
0.000000
 70
    1
  0
VERTEX
  8
0
 10
743.46610680
 20
1410.50582829
  0
VERTEX
  8
0
 10
738.66074956
 20
1401.63841230
  0
VERTEX
  8
0
 10
362.44409790
 20
1564.24088663
  0
VERTEX
  8
0
 10
43.59927264
 20
1696.00953772
 42
-0.68627863
  0
VERTEX
  8
0
 10
65.31585460
 20
1761.83657243
  0
VERTEX
  8
0
 10
379.91947240
 20
1678.68754460
  0
VERTEX
  8
0
 10
381.94009499
 20
1678.17774783
  0
VERTEX
  8
0
 10
383.97169016
 20
1677.71359258
  0
VERTEX
  8
0
 10
386.01321591
 20
1677.29517840
  0
VERTEX
  8
0
 10
388.06363024
 20
1676.92260488
  0
VERTEX
  8
0
 10
390.12189111
 20
1676.59597158
  0
VERTEX
  8
0
 10
392.18695653
 20
1676.31537809
  0
VERTEX
  8
0
 10
394.25778447
 20
1676.08092397
  0
VERTEX
  8
0
 10
396.33333294
 20
1675.89270878
  0
VERTEX
  8
0
 10
398.41255990
 20
1675.75083210
  0
VERTEX
  8
0
 10
400.49442336
 20
1675.65539351
  0
VERTEX
  8
0
 10
402.57788129
 20
1675.60649259
  0
VERTEX
  8
0
 10
404.66189169
 20
1675.60422888
  0
VERTEX
  8
0
 10
406.74541255
 20
1675.64870197
  0
VERTEX
  8
0
 10
408.82740184
 20
1675.74001144
  0
VERTEX
  8
0
 10
410.90681757
 20
1675.87825685
  0
VERTEX
  8
0
 10
412.98261771
 20
1676.06353777
  0
VERTEX
  8
0
 10
414.88118439
 20
1676.27457123
  0
VERTEX
  8
0
 10
416.77496413
 20
1676.52470779
  0
VERTEX
  8
0
 10
418.66318125
 20
1676.81374713
  0
VERTEX
  8
0
 10
420.54506004
 20
1677.14148896
  0
VERTEX
  8
0
 10
422.41982486
 20
1677.50773296
  0
VERTEX
  8
0
 10
424.28670000
 20
1677.91227885
  0
VERTEX
  8
0
 10
426.14490980
 20
1678.35492631
  0
VERTEX
  8
0
 10
427.99367857
 20
1678.83547506
  0
VERTEX
  8
0
 10
429.83223064
 20
1679.35372477
  0
VERTEX
  8
0
 10
431.65979031
 20
1679.90947514
  0
VERTEX
  8
0
 10
433.47558192
 20
1680.50252590
  0
VERTEX
  8
0
 10
435.27882978
 20
1681.13267672
  0
VERTEX
  8
0
 10
437.06875822
 20
1681.79972729
  0
VERTEX
  8
0
 10
438.84459156
 20
1682.50347733
  0
VERTEX
  8
0
 10
440.60555411
 20
1683.24372652
  0
VERTEX
  8
0
 10
442.35087019
 20
1684.02027457
  0
VERTEX
  8
0
 10
444.03496020
 20
1684.81107457
  0
VERTEX
  8
0
 10
445.70289470
 20
1685.63538347
  0
VERTEX
  8
0
 10
447.35403526
 20
1686.49282283
  0
VERTEX
  8
0
 10
448.98774345
 20
1687.38301426
  0
VERTEX
  8
0
 10
450.60338083
 20
1688.30557930
  0
VERTEX
  8
0
 10
452.20030897
 20
1689.26013957
  0
VERTEX
  8
0
 10
453.77788944
 20
1690.24631663
  0
VERTEX
  8
0
 10
455.33548381
 20
1691.26373206
  0
VERTEX
  8
0
 10
456.87245365
 20
1692.31200746
  0
VERTEX
  8
0
 10
458.38816051
 20
1693.39076439
  0
VERTEX
  8
0
 10
459.88196597
 20
1694.49962444
  0
VERTEX
  8
0
 10
461.35323160
 20
1695.63820919
  0
VERTEX
  8
0
 10
462.80131897
 20
1696.80614023
  0
VERTEX
  8
0
 10
464.22558963
 20
1698.00303912
  0
VERTEX
  8
0
 10
465.62540517
 20
1699.22852745
  0
VERTEX
  8
0
 10
467.00012714
 20
1700.48222681
  0
VERTEX
  8
0
 10
468.22521053
 20
1701.64334733
  0
VERTEX
  8
0
 10
469.42911393
 20
1702.82640095
  0
VERTEX
  8
0
 10
470.61146859
 20
1704.03097927
  0
VERTEX
  8
0
 10
471.77190573
 20
1705.25667389
  0
VERTEX
  8
0
 10
472.91005659
 20
1706.50307642
  0
VERTEX
  8
0
 10
474.02555238
 20
1707.76977846
  0
VERTEX
  8
0
 10
475.11802434
 20
1709.05637161
  0
VERTEX
  8
0
 10
476.18710370
 20
1710.36244747
  0
VERTEX
  8
0
 10
477.23242167
 20
1711.68759766
  0
VERTEX
  8
0
 10
478.25360949
 20
1713.03141377
  0
VERTEX
  8
0
 10
479.25029840
 20
1714.39348739
  0
VERTEX
  8
0
 10
480.22211960
 20
1715.77341015
  0
VERTEX
  8
0
 10
481.16870434
 20
1717.17077363
  0
VERTEX
  8
0
 10
482.08968385
 20
1718.58516945
  0
VERTEX
  8
0
 10
482.98468934
 20
1720.01618920
  0
VERTEX
  8
0
 10
483.85335206
 20
1721.46342448
  0
VERTEX
  8
0
 10
520.60792736
 20
1783.97652614
  0
VERTEX
  8
0
 10
557.36397981
 20
1846.48943837
  0
VERTEX
  8
0
 10
594.11183653
 20
1909.00706242
  0
VERTEX
  8
0
 10
612.49524038
 20
1940.25876618
  0
VERTEX
  8
0
 10
636.99857323
 20
1981.93400116
  0
VERTEX
  8
0
 10
637.84594607
 20
1982.44562229
  0
VERTEX
  8
0
 10
638.70151989
 20
1982.94310050
  0
VERTEX
  8
0
 10
639.56505110
 20
1983.42638010
  0
VERTEX
  8
0
 10
640.43629609
 20
1983.89540540
  0
VERTEX
  8
0
 10
641.31501126
 20
1984.35012073
  0
VERTEX
  8
0
 10
642.20095303
 20
1984.79047041
  0
VERTEX
  8
0
 10
643.09387777
 20
1985.21639874
  0
VERTEX
  8
0
 10
643.99354190
 20
1985.62785005
  0
VERTEX
  8
0
 10
644.89970180
 20
1986.02476865
  0
VERTEX
  8
0
 10
645.81211389
 20
1986.40709884
  0
VERTEX
  8
0
 10
646.73053457
 20
1986.77478497
  0
VERTEX
  8
0
 10
647.65472022
 20
1987.12777133
  0
VERTEX
  8
0
 10
648.58442724
 20
1987.46600224
  0
VERTEX
  8
0
 10
649.51941205
 20
1987.78942203
  0
VERTEX
  8
0
 10
650.45943104
 20
1988.09797500
  0
VERTEX
  8
0
 10
651.40424060
 20
1988.39160547
  0
VERTEX
  8
0
 10
652.35359714
 20
1988.67025776
  0
VERTEX
  8
0
 10
653.30725706
 20
1988.93387619
  0
VERTEX
  8
0
 10
654.26497676
 20
1989.18240506
  0
VERTEX
  8
0
 10
655.22651263
 20
1989.41578871
  0
VERTEX
  8
0
 10
656.19162107
 20
1989.63397143
  0
VERTEX
  8
0
 10
657.16005849
 20
1989.83689756
  0
VERTEX
  8
0
 10
658.13158127
 20
1990.02451140
  0
VERTEX
  8
0
 10
659.10594584
 20
1990.19675727
  0
VERTEX
  8
0
 10
660.08290857
 20
1990.35357948
  0
VERTEX
  8
0
 10
661.06222588
 20
1990.49492236
  0
VERTEX
  8
0
 10
662.04365415
 20
1990.62073022
  0
VERTEX
  8
0
 10
663.02694979
 20
1990.73094738
  0
VERTEX
  8
0
 10
664.01186922
 20
1990.82551814
  0
VERTEX
  8
0
 10
664.99816880
 20
1990.90438683
  0
VERTEX
  8
0
 10
665.98560495
 20
1990.96749777
  0
VERTEX
  8
0
 10
666.97393407
 20
1991.01479527
  0
VERTEX
  8
0
 10
668.11035590
 20
1991.04928662
  0
VERTEX
  8
0
 10
669.24711746
 20
1991.06233995
  0
VERTEX
  8
0
 10
670.38384997
 20
1991.05405440
  0
VERTEX
  8
0
 10
671.52018465
 20
1991.02452911
  0
VERTEX
  8
0
 10
672.65575271
 20
1990.97386322
  0
VERTEX
  8
0
 10
673.79018536
 20
1990.90215589
  0
VERTEX
  8
0
 10
674.92311382
 20
1990.80950624
  0
VERTEX
  8
0
 10
676.05416930
 20
1990.69601344
  0
VERTEX
  8
0
 10
677.18298302
 20
1990.56177662
  0
VERTEX
  8
0
 10
678.30918618
 20
1990.40689492
  0
VERTEX
  8
0
 10
679.43241000
 20
1990.23146750
  0
VERTEX
  8
0
 10
680.55228570
 20
1990.03559349
  0
VERTEX
  8
0
 10
681.66844450
 20
1989.81937204
  0
VERTEX
  8
0
 10
682.78051759
 20
1989.58290230
  0
VERTEX
  8
0
 10
683.88813620
 20
1989.32628341
  0
VERTEX
  8
0
 10
684.99093154
 20
1989.04961450
  0
VERTEX
  8
0
 10
686.08853482
 20
1988.75299473
  0
VERTEX
  8
0
 10
687.18057726
 20
1988.43652324
  0
VERTEX
  8
0
 10
688.26669007
 20
1988.10029918
  0
VERTEX
  8
0
 10
689.34650447
 20
1987.74442168
  0
VERTEX
  8
0
 10
690.41965166
 20
1987.36898991
  0
VERTEX
  8
0
 10
691.48576286
 20
1986.97410298
  0
VERTEX
  8
0
 10
692.54446929
 20
1986.55986006
  0
VERTEX
  8
0
 10
693.59540216
 20
1986.12636027
  0
VERTEX
  8
0
 10
694.63819268
 20
1985.67370280
  0
VERTEX
  8
0
 10
695.67247207
 20
1985.20198674
  0
VERTEX
  8
0
 10
696.69787153
 20
1984.71131127
  0
VERTEX
  8
0
 10
697.71402230
 20
1984.20177552
  0
VERTEX
  8
0
 10
698.72055557
 20
1983.67347863
  0
VERTEX
  8
0
 10
699.71710256
 20
1983.12651976
  0
VERTEX
  8
0
 10
700.70329448
 20
1982.56099804
  0
VERTEX
  8
0
 10
701.67876255
 20
1981.97701263
  0
VERTEX
  8
0
 10
703.29811692
 20
1980.95163777
  0
VERTEX
  8
0
 10
704.88473627
 20
1979.87643989
  0
VERTEX
  8
0
 10
706.43731304
 20
1978.75267711
  0
VERTEX
  8
0
 10
707.95453965
 20
1977.58160757
  0
VERTEX
  8
0
 10
709.43510852
 20
1976.36448940
  0
VERTEX
  8
0
 10
710.87771209
 20
1975.10258072
  0
VERTEX
  8
0
 10
712.28104277
 20
1973.79713970
  0
VERTEX
  8
0
 10
713.64379299
 20
1972.44942443
  0
VERTEX
  8
0
 10
714.96465518
 20
1971.06069309
  0
VERTEX
  8
0
 10
716.24232175
 20
1969.63220379
  0
VERTEX
  8
0
 10
717.47548515
 20
1968.16521466
  0
VERTEX
  8
0
 10
718.66283780
 20
1966.66098384
  0
VERTEX
  8
0
 10
719.80307210
 20
1965.12076946
  0
VERTEX
  8
0
 10
720.89488050
 20
1963.54582966
  0
VERTEX
  8
0
 10
721.42221638
 20
1962.74573090
  0
VERTEX
  8
0
 10
721.93695542
 20
1961.93742259
  0
VERTEX
  8
0
 10
722.43893421
 20
1961.12106198
  0
VERTEX
  8
0
 10
722.92798929
 20
1960.29680635
  0
VERTEX
  8
0
 10
723.38414702
 20
1959.50028753
 42
-0.53724555
  0
VERTEX
  8
0
 10
720.34306570
 20
1953.56324540
 42
0.86490825
  0
VERTEX
  8
0
 10
718.79511503
 20
1906.95839742
  0
VERTEX
  8
0
 10
679.55478416
 20
1839.28597723
  0
VERTEX
  8
0
 10
644.58722193
 20
1778.98146314
  0
VERTEX
  8
0
 10
643.98137522
 20
1776.95147080
  0
VERTEX
  8
0
 10
643.39875600
 20
1774.91561163
  0
VERTEX
  8
0
 10
642.83956261
 20
1772.87411578
  0
VERTEX
  8
0
 10
642.30399341
 20
1770.82721345
  0
VERTEX
  8
0
 10
641.79224677
 20
1768.77513479
  0
VERTEX
  8
0
 10
641.30452102
 20
1766.71810998
  0
VERTEX
  8
0
 10
640.84101456
 20
1764.65636920
  0
VERTEX
  8
0
 10
640.40192570
 20
1762.59014262
  0
VERTEX
  8
0
 10
639.98745283
 20
1760.51966040
  0
VERTEX
  8
0
 10
639.59779429
 20
1758.44515275
  0
VERTEX
  8
0
 10
639.23314844
 20
1756.36684980
  0
VERTEX
  8
0
 10
638.89371364
 20
1754.28498175
  0
VERTEX
  8
0
 10
638.57968825
 20
1752.19977876
  0
VERTEX
  8
0
 10
638.29127063
 20
1750.11147102
  0
VERTEX
  8
0
 10
638.02865913
 20
1748.02028868
  0
VERTEX
  8
0
 10
637.79205211
 20
1745.92646193
  0
VERTEX
  8
0
 10
637.58164793
 20
1743.83022094
  0
VERTEX
  8
0
 10
637.39764494
 20
1741.73179589
  0
VERTEX
  8
0
 10
637.24024150
 20
1739.63141694
  0
VERTEX
  8
0
 10
637.10963596
 20
1737.52931427
  0
VERTEX
  8
0
 10
637.00602670
 20
1735.42571806
  0
VERTEX
  8
0
 10
636.92961206
 20
1733.32085847
  0
VERTEX
  8
0
 10
636.88059040
 20
1731.21496567
  0
VERTEX
  8
0
 10
636.85916007
 20
1729.10826986
  0
VERTEX
  8
0
 10
636.86551945
 20
1727.00100119
  0
VERTEX
  8
0
 10
636.89986687
 20
1724.89338984
  0
VERTEX
  8
0
 10
636.96240070
 20
1722.78566599
  0
VERTEX
  8
0
 10
637.05331931
 20
1720.67805980
  0
VERTEX
  8
0
 10
637.17282102
 20
1718.57080145
  0
VERTEX
  8
0
 10
637.32110423
 20
1716.46412111
  0
VERTEX
  8
0
 10
637.49836727
 20
1714.35824896
  0
VERTEX
  8
0
 10
637.70480850
 20
1712.25341517
  0
VERTEX
  8
0
 10
638.09184809
 20
1708.81354676
  0
VERTEX
  8
0
 10
638.52836475
 20
1705.38238054
  0
VERTEX
  8
0
 10
639.01313640
 20
1701.95984008
  0
VERTEX
  8
0
 10
639.54494092
 20
1698.54584896
  0
VERTEX
  8
0
 10
640.12255621
 20
1695.14033073
  0
VERTEX
  8
0
 10
640.74476014
 20
1691.74320900
  0
VERTEX
  8
0
 10
641.41033062
 20
1688.35440731
  0
VERTEX
  8
0
 10
642.11804553
 20
1684.97384925
  0
VERTEX
  8
0
 10
642.86668276
 20
1681.60145839
  0
VERTEX
  8
0
 10
643.65502021
 20
1678.23715830
  0
VERTEX
  8
0
 10
644.48183576
 20
1674.88087255
  0
VERTEX
  8
0
 10
645.34590729
 20
1671.53252472
  0
VERTEX
  8
0
 10
646.24601271
 20
1668.19203837
  0
VERTEX
  8
0
 10
647.18092990
 20
1664.85933709
  0
VERTEX
  8
0
 10
648.14943676
 20
1661.53434444
  0
VERTEX
  8
0
 10
649.15031117
 20
1658.21698400
  0
VERTEX
  8
0
 10
650.18233101
 20
1654.90717934
  0
VERTEX
  8
0
 10
651.24427419
 20
1651.60485402
  0
VERTEX
  8
0
 10
652.33491860
 20
1648.30993164
  0
VERTEX
  8
0
 10
653.45304212
 20
1645.02233575
  0
VERTEX
  8
0
 10
654.59742263
 20
1641.74198993
  0
VERTEX
  8
0
 10
655.76683806
 20
1638.46881775
  0
VERTEX
  8
0
 10
656.96006625
 20
1635.20274279
  0
VERTEX
  8
0
 10
658.17588511
 20
1631.94368861
  0
VERTEX
  8
0
 10
659.41307254
 20
1628.69157881
  0
VERTEX
  8
0
 10
660.67040643
 20
1625.44633692
  0
VERTEX
  8
0
 10
661.94666465
 20
1622.20788654
  0
VERTEX
  8
0
 10
663.24062512
 20
1618.97615124
  0
VERTEX
  8
0
 10
664.55106570
 20
1615.75105459
  0
VERTEX
  8
0
 10
665.87676429
 20
1612.53252017
  0
VERTEX
  8
0
 10
668.56904709
 20
1606.11483229
  0
VERTEX
  8
0
 10
669.82482604
 20
1603.20243805
  0
VERTEX
  8
0
 10
671.11487420
 20
1600.30584287
  0
VERTEX
  8
0
 10
672.43952046
 20
1597.42570606
  0
VERTEX
  8
0
 10
673.79909372
 20
1594.56268697
  0
VERTEX
  8
0
 10
675.19392289
 20
1591.71744490
  0
VERTEX
  8
0
 10
676.62433684
 20
1588.89063920
  0
VERTEX
  8
0
 10
678.09066449
 20
1586.08292917
  0
VERTEX
  8
0
 10
679.59323473
 20
1583.29497416
  0
VERTEX
  8
0
 10
681.13237646
 20
1580.52743350
  0
VERTEX
  8
0
 10
682.70841857
 20
1577.78096651
  0
VERTEX
  8
0
 10
684.32168997
 20
1575.05623251
  0
VERTEX
  8
0
 10
685.97251956
 20
1572.35389083
  0
VERTEX
  8
0
 10
687.66123621
 20
1569.67460080
  0
VERTEX
  8
0
 10
689.38816885
 20
1567.01902176
  0
VERTEX
  8
0
 10
691.15364635
 20
1564.38781303
  0
VERTEX
  8
0
 10
692.95799763
 20
1561.78163392
  0
VERTEX
  8
0
 10
779.33677216
 20
1440.32416769
 42
-0.29882803
  0
VERTEX
  8
0
 10
780.15805987
 20
1418.39307764
  0
VERTEX
  8
0
 10
779.92806705
 20
1417.99130489
  0
VERTEX
  8
0
 10
779.68107378
 20
1417.60524461
  0
VERTEX
  8
0
 10
779.41780379
 20
1417.23512985
  0
VERTEX
  8
0
 10
779.13898085
 20
1416.88119368
  0
VERTEX
  8
0
 10
778.84532869
 20
1416.54366914
  0
VERTEX
  8
0
 10
778.53757106
 20
1416.22278929
  0
VERTEX
  8
0
 10
778.21643172
 20
1415.91878719
  0
VERTEX
  8
0
 10
777.88263442
 20
1415.63189590
  0
VERTEX
  8
0
 10
777.53690289
 20
1415.36234846
  0
VERTEX
  8
0
 10
777.17996090
 20
1415.11037795
  0
VERTEX
  8
0
 10
776.81253218
 20
1414.87621741
  0
VERTEX
  8
0
 10
776.43534050
 20
1414.66009988
  0
VERTEX
  8
0
 10
776.04910960
 20
1414.46225845
  0
VERTEX
  8
0
 10
775.65456322
 20
1414.28292615
  0
VERTEX
  8
0
 10
775.25242512
 20
1414.12233605
  0
VERTEX
  8
0
 10
774.84341905
 20
1413.98072119
  0
VERTEX
  8
0
 10
774.42826875
 20
1413.85831465
  0
VERTEX
  8
0
 10
774.00769797
 20
1413.75534946
  0
VERTEX
  8
0
 10
773.58243046
 20
1413.67205869
  0
VERTEX
  8
0
 10
773.15318998
 20
1413.60867540
  0
VERTEX
  8
0
 10
772.72070026
 20
1413.56543263
  0
VERTEX
  8
0
 10
772.28568506
 20
1413.54256345
  0
VERTEX
  8
0
 10
771.84886813
 20
1413.54030092
  0
VERTEX
  8
0
 10
771.41097323
 20
1413.55887807
  0
VERTEX
  8
0
 10
770.97272409
 20
1413.59852799
  0
VERTEX
  8
0
 10
770.53484445
 20
1413.65948371
  0
VERTEX
  8
0
 10
770.09805808
 20
1413.74197829
  0
VERTEX
  8
0
 10
769.66308872
 20
1413.84624478
  0
VERTEX
  8
0
 10
769.23066013
 20
1413.97251627
  0
VERTEX
  8
0
 10
768.80149604
 20
1414.12102577
  0
VERTEX
  8
0
 10
768.37632022
 20
1414.29200637
  0
VERTEX
  8
0
 10
767.95585640
 20
1414.48569110
  0
VERTEX
  8
0
 10
762.72308306
 20
1421.54755372
  0
VERTEX
  8
0
 10
762.17247034
 20
1421.87964711
  0
VERTEX
  8
0
 10
761.61177019
 20
1422.18032090
  0
VERTEX
  8
0
 10
761.04206226
 20
1422.44981165
  0
VERTEX
  8
0
 10
760.46442617
 20
1422.68835595
  0
VERTEX
  8
0
 10
759.87994155
 20
1422.89619035
  0
VERTEX
  8
0
 10
759.28968805
 20
1423.07355143
  0
VERTEX
  8
0
 10
758.69474530
 20
1423.22067575
  0
VERTEX
  8
0
 10
758.09619293
 20
1423.33779990
  0
VERTEX
  8
0
 10
757.49511056
 20
1423.42516042
  0
VERTEX
  8
0
 10
756.89257785
 20
1423.48299389
  0
VERTEX
  8
0
 10
756.28967443
 20
1423.51153688
  0
VERTEX
  8
0
 10
755.68747994
 20
1423.51102597
  0
VERTEX
  8
0
 10
755.08707399
 20
1423.48169771
  0
VERTEX
  8
0
 10
754.48953623
 20
1423.42378869
  0
VERTEX
  8
0
 10
753.89594630
 20
1423.33753546
  0
VERTEX
  8
0
 10
753.30738382
 20
1423.22317460
  0
VERTEX
  8
0
 10
752.72492844
 20
1423.08094266
  0
VERTEX
  8
0
 10
752.14965978
 20
1422.91107623
  0
VERTEX
  8
0
 10
751.58265749
 20
1422.71381188
  0
VERTEX
  8
0
 10
751.02500119
 20
1422.48938617
  0
VERTEX
  8
0
 10
750.47777052
 20
1422.23803567
  0
VERTEX
  8
0
 10
749.94204512
 20
1421.95999694
  0
VERTEX
  8
0
 10
749.41890462
 20
1421.65550657
  0
VERTEX
  8
0
 10
748.90942866
 20
1421.32480111
  0
VERTEX
  8
0
 10
748.41469686
 20
1420.96811714
  0
VERTEX
  8
0
 10
747.93578886
 20
1420.58569122
  0
VERTEX
  8
0
 10
747.47378431
 20
1420.17775993
  0
VERTEX
  8
0
 10
747.02976282
 20
1419.74455984
  0
VERTEX
  8
0
 10
746.60480404
 20
1419.28632750
  0
VERTEX
  8
0
 10
746.19998761
 20
1418.80329949
  0
VERTEX
  8
0
 10
745.81639315
 20
1418.29571238
  0
VERTEX
  8
0
 10
745.45510030
 20
1417.76380275
  0
VERTEX
  8
0
 10
745.19382030
 20
1417.33952411
  0
VERTEX
  8
0
 10
744.95130270
 20
1416.90901220
  0
VERTEX
  8
0
 10
744.72744036
 20
1416.47276429
  0
VERTEX
  8
0
 10
744.52212615
 20
1416.03127765
  0
VERTEX
  8
0
 10
744.33525289
 20
1415.58504958
  0
VERTEX
  8
0
 10
744.16671345
 20
1415.13457735
  0
VERTEX
  8
0
 10
744.01640068
 20
1414.68035825
  0
VERTEX
  8
0
 10
743.88420745
 20
1414.22288955
  0
VERTEX
  8
0
 10
743.77002658
 20
1413.76266854
  0
VERTEX
  8
0
 10
743.67375096
 20
1413.30019249
  0
VERTEX
  8
0
 10
743.59527341
 20
1412.83595870
  0
VERTEX
  8
0
 10
743.53448680
 20
1412.37046443
  0
VERTEX
  8
0
 10
743.49128399
 20
1411.90420698
  0
VERTEX
  8
0
 10
743.46555781
 20
1411.43768362
  0
VERTEX
  8
0
 10
743.45720113
 20
1410.97139163
  0
VERTEX
  8
0
 10
743.46610680
 20
1410.50582829
  0
SEQEND
  0
POLYLINE
  8
METAL_FRAME
 62
256
 66
   1
 39
0.000000
 70
    1
  0
VERTEX
  8
0
 10
552.48225183
 20
1665.02019418
 42
-0.41421356
  0
VERTEX
  8
0
 10
569.14991181
 20
1633.04068338
 42
-0.41421356
  0
VERTEX
  8
0
 10
537.17040100
 20
1616.37302341
  0
VERTEX
  8
0
 10
508.15969634
 20
1625.50423444
 42
-0.41421356
  0
VERTEX
  8
0
 10
491.49203637
 20
1657.48374525
 42
-0.41421356
  0
VERTEX
  8
0
 10
523.47154718
 20
1674.15140521
  0
VERTEX
  8
0
 10
552.48225183
 20
1665.02019418
  0
SEQEND
  0
POLYLINE
  8
METAL_FRAME
 62
256
 66
   1
 39
0.000000
 70
    1
  0
VERTEX
  8
0
 10
727.29807608
 20
2104.21834746
  0
VERTEX
  8
0
 10
732.10343332
 20
2113.08576345
  0
VERTEX
  8
0
 10
1108.32008498
 20
1950.48328913
  0
VERTEX
  8
0
 10
1427.16491024
 20
1818.71463803
 42
-0.68627863
  0
VERTEX
  8
0
 10
1405.44832828
 20
1752.88760332
  0
VERTEX
  8
0
 10
1090.84471048
 20
1836.03663115
  0
VERTEX
  8
0
 10
1088.82408789
 20
1836.54642792
  0
VERTEX
  8
0
 10
1086.79249272
 20
1837.01058318
  0
VERTEX
  8
0
 10
1084.75096697
 20
1837.42899735
  0
VERTEX
  8
0
 10
1082.70055264
 20
1837.80157087
  0
VERTEX
  8
0
 10
1080.64229177
 20
1838.12820417
  0
VERTEX
  8
0
 10
1078.57722635
 20
1838.40879766
  0
VERTEX
  8
0
 10
1076.50639841
 20
1838.64325179
  0
VERTEX
  8
0
 10
1074.43084994
 20
1838.83146697
  0
VERTEX
  8
0
 10
1072.35162298
 20
1838.97334365
  0
VERTEX
  8
0
 10
1070.26975952
 20
1839.06878224
  0
VERTEX
  8
0
 10
1068.18630159
 20
1839.11768317
  0
VERTEX
  8
0
 10
1066.10229119
 20
1839.11994688
  0
VERTEX
  8
0
 10
1064.01877033
 20
1839.07547378
  0
VERTEX
  8
0
 10
1061.93678103
 20
1838.98416431
  0
VERTEX
  8
0
 10
1059.85736531
 20
1838.84591891
  0
VERTEX
  8
0
 10
1057.78156517
 20
1838.66063798
  0
VERTEX
  8
0
 10
1055.88299849
 20
1838.44960452
  0
VERTEX
  8
0
 10
1053.98921875
 20
1838.19946796
  0
VERTEX
  8
0
 10
1052.10100163
 20
1837.91042862
  0
VERTEX
  8
0
 10
1050.21912284
 20
1837.58268679
  0
VERTEX
  8
0
 10
1048.34435802
 20
1837.21644280
  0
VERTEX
  8
0
 10
1046.47748287
 20
1836.81189690
  0
VERTEX
  8
0
 10
1044.61927308
 20
1836.36924944
  0
VERTEX
  8
0
 10
1042.77050430
 20
1835.88870070
  0
VERTEX
  8
0
 10
1040.93195224
 20
1835.37045098
  0
VERTEX
  8
0
 10
1039.10439257
 20
1834.81470061
  0
VERTEX
  8
0
 10
1037.28860096
 20
1834.22164986
  0
VERTEX
  8
0
 10
1035.48535309
 20
1833.59149904
  0
VERTEX
  8
0
 10
1033.69542466
 20
1832.92444846
  0
VERTEX
  8
0
 10
1031.91959132
 20
1832.22069842
  0
VERTEX
  8
0
 10
1030.15862877
 20
1831.48044923
  0
VERTEX
  8
0
 10
1028.41331269
 20
1830.70390118
  0
VERTEX
  8
0
 10
1026.72922268
 20
1829.91310118
  0
VERTEX
  8
0
 10
1025.06128817
 20
1829.08879228
  0
VERTEX
  8
0
 10
1023.41014761
 20
1828.23135292
  0
VERTEX
  8
0
 10
1021.77643943
 20
1827.34116149
  0
VERTEX
  8
0
 10
1020.16080205
 20
1826.41859645
  0
VERTEX
  8
0
 10
1018.56387391
 20
1825.46403619
  0
VERTEX
  8
0
 10
1016.98629344
 20
1824.47785912
  0
VERTEX
  8
0
 10
1015.42869906
 20
1823.46044369
  0
VERTEX
  8
0
 10
1013.89172923
 20
1822.41216829
  0
VERTEX
  8
0
 10
1012.37602237
 20
1821.33341136
  0
VERTEX
  8
0
 10
1010.88221691
 20
1820.22455131
  0
VERTEX
  8
0
 10
1009.41095128
 20
1819.08596656
  0
VERTEX
  8
0
 10
1007.96286391
 20
1817.91803553
  0
VERTEX
  8
0
 10
1006.53859325
 20
1816.72113664
  0
VERTEX
  8
0
 10
1005.13877771
 20
1815.49564830
  0
VERTEX
  8
0
 10
1003.76405574
 20
1814.24194894
  0
VERTEX
  8
0
 10
1002.53897235
 20
1813.08082842
  0
VERTEX
  8
0
 10
1001.33506895
 20
1811.89777480
  0
VERTEX
  8
0
 10
1000.15271429
 20
1810.69319648
  0
VERTEX
  8
0
 10
998.99227714
 20
1809.46750186
  0
VERTEX
  8
0
 10
997.85412629
 20
1808.22109933
  0
VERTEX
  8
0
 10
996.73863050
 20
1806.95439729
  0
VERTEX
  8
0
 10
995.64615853
 20
1805.66780414
  0
VERTEX
  8
0
 10
994.57707918
 20
1804.36172828
  0
VERTEX
  8
0
 10
993.53176121
 20
1803.03657809
  0
VERTEX
  8
0
 10
992.51057339
 20
1801.69276198
  0
VERTEX
  8
0
 10
991.51388448
 20
1800.33068836
  0
VERTEX
  8
0
 10
990.54206328
 20
1798.95076560
  0
VERTEX
  8
0
 10
989.59547854
 20
1797.55340212
  0
VERTEX
  8
0
 10
988.67449903
 20
1796.13900630
  0
VERTEX
  8
0
 10
987.77949354
 20
1794.70798655
  0
VERTEX
  8
0
 10
986.91083082
 20
1793.26075128
  0
VERTEX
  8
0
 10
950.15625552
 20
1730.74764962
  0
VERTEX
  8
0
 10
913.40020307
 20
1668.23473738
  0
VERTEX
  8
0
 10
876.65234635
 20
1605.71711333
  0
VERTEX
  8
0
 10
858.26894250
 20
1574.46540957
  0
VERTEX
  8
0
 10
833.76560965
 20
1532.79017459
  0
VERTEX
  8
0
 10
832.91823681
 20
1532.27855346
  0
VERTEX
  8
0
 10
832.06266299
 20
1531.78107525
  0
VERTEX
  8
0
 10
831.19913178
 20
1531.29779566
  0
VERTEX
  8
0
 10
830.32788679
 20
1530.82877035
  0
VERTEX
  8
0
 10
829.44917161
 20
1530.37405502
  0
VERTEX
  8
0
 10
828.56322985
 20
1529.93370534
  0
VERTEX
  8
0
 10
827.67030511
 20
1529.50777701
  0
VERTEX
  8
0
 10
826.77064098
 20
1529.09632571
  0
VERTEX
  8
0
 10
825.86448108
 20
1528.69940711
  0
VERTEX
  8
0
 10
824.95206898
 20
1528.31707691
  0
VERTEX
  8
0
 10
824.03364831
 20
1527.94939078
  0
VERTEX
  8
0
 10
823.10946266
 20
1527.59640442
  0
VERTEX
  8
0
 10
822.17975564
 20
1527.25817351
  0
VERTEX
  8
0
 10
821.24477083
 20
1526.93475373
  0
VERTEX
  8
0
 10
820.30475184
 20
1526.62620075
  0
VERTEX
  8
0
 10
819.35994228
 20
1526.33257028
  0
VERTEX
  8
0
 10
818.41058574
 20
1526.05391799
  0
VERTEX
  8
0
 10
817.45692581
 20
1525.79029956
  0
VERTEX
  8
0
 10
816.49920612
 20
1525.54177069
  0
VERTEX
  8
0
 10
815.53767025
 20
1525.30838705
  0
VERTEX
  8
0
 10
814.57256181
 20
1525.09020432
  0
VERTEX
  8
0
 10
813.60412439
 20
1524.88727819
  0
VERTEX
  8
0
 10
812.63260161
 20
1524.69966436
  0
VERTEX
  8
0
 10
811.65823704
 20
1524.52741848
  0
VERTEX
  8
0
 10
810.68127431
 20
1524.37059627
  0
VERTEX
  8
0
 10
809.70195700
 20
1524.22925339
  0
VERTEX
  8
0
 10
808.72052873
 20
1524.10344553
  0
VERTEX
  8
0
 10
807.73723308
 20
1523.99322837
  0
VERTEX
  8
0
 10
806.75231366
 20
1523.89865761
  0
VERTEX
  8
0
 10
805.76601408
 20
1523.81978892
  0
VERTEX
  8
0
 10
804.77857793
 20
1523.75667798
  0
VERTEX
  8
0
 10
803.79024880
 20
1523.70938048
  0
VERTEX
  8
0
 10
802.65382698
 20
1523.67488913
  0
VERTEX
  8
0
 10
801.51706542
 20
1523.66183580
  0
VERTEX
  8
0
 10
800.38033290
 20
1523.67012135
  0
VERTEX
  8
0
 10
799.24399823
 20
1523.69964664
  0
VERTEX
  8
0
 10
798.10843017
 20
1523.75031253
  0
VERTEX
  8
0
 10
796.97399752
 20
1523.82201986
  0
VERTEX
  8
0
 10
795.84106906
 20
1523.91466951
  0
VERTEX
  8
0
 10
794.71001358
 20
1524.02816231
  0
VERTEX
  8
0
 10
793.58119986
 20
1524.16239913
  0
VERTEX
  8
0
 10
792.45499669
 20
1524.31728083
  0
VERTEX
  8
0
 10
791.33177288
 20
1524.49270825
  0
VERTEX
  8
0
 10
790.21189718
 20
1524.68858226
  0
VERTEX
  8
0
 10
789.09573838
 20
1524.90480371
  0
VERTEX
  8
0
 10
787.98366529
 20
1525.14127345
  0
VERTEX
  8
0
 10
786.87604668
 20
1525.39789235
  0
VERTEX
  8
0
 10
785.77325134
 20
1525.67456125
  0
VERTEX
  8
0
 10
784.67564806
 20
1525.97118102
  0
VERTEX
  8
0
 10
783.58360562
 20
1526.28765251
  0
VERTEX
  8
0
 10
782.49749281
 20
1526.62387658
  0
VERTEX
  8
0
 10
781.41767841
 20
1526.97975407
  0
VERTEX
  8
0
 10
780.34453122
 20
1527.35518585
  0
VERTEX
  8
0
 10
779.27842002
 20
1527.75007277
  0
VERTEX
  8
0
 10
778.21971359
 20
1528.16431569
  0
VERTEX
  8
0
 10
777.16878072
 20
1528.59781548
  0
VERTEX
  8
0
 10
776.12599020
 20
1529.05047296
  0
VERTEX
  8
0
 10
775.09171080
 20
1529.52218901
  0
VERTEX
  8
0
 10
774.06631135
 20
1530.01286449
  0
VERTEX
  8
0
 10
773.05016058
 20
1530.52240023
  0
VERTEX
  8
0
 10
772.04362731
 20
1531.05069712
  0
VERTEX
  8
0
 10
771.04708032
 20
1531.59765600
  0
VERTEX
  8
0
 10
770.06088840
 20
1532.16317771
  0
VERTEX
  8
0
 10
769.08542033
 20
1532.74716312
  0
VERTEX
  8
0
 10
767.46606596
 20
1533.77253798
  0
VERTEX
  8
0
 10
765.87944660
 20
1534.84773586
  0
VERTEX
  8
0
 10
764.32686984
 20
1535.97149864
  0
VERTEX
  8
0
 10
762.80964323
 20
1537.14256818
  0
VERTEX
  8
0
 10
761.32907435
 20
1538.35968636
  0
VERTEX
  8
0
 10
759.88647079
 20
1539.62159503
  0
VERTEX
  8
0
 10
758.48314011
 20
1540.92703606
  0
VERTEX
  8
0
 10
757.12038989
 20
1542.27475132
  0
VERTEX
  8
0
 10
755.79952770
 20
1543.66348267
  0
VERTEX
  8
0
 10
754.52186112
 20
1545.09197197
  0
VERTEX
  8
0
 10
753.28869773
 20
1546.55896110
  0
VERTEX
  8
0
 10
752.10134508
 20
1548.06319192
  0
VERTEX
  8
0
 10
750.96111078
 20
1549.60340629
  0
VERTEX
  8
0
 10
749.86930237
 20
1551.17834609
  0
VERTEX
  8
0
 10
749.34196650
 20
1551.97844485
  0
VERTEX
  8
0
 10
748.82722746
 20
1552.78675316
  0
VERTEX
  8
0
 10
748.32524867
 20
1553.60311377
  0
VERTEX
  8
0
 10
747.83619359
 20
1554.42736940
  0
VERTEX
  8
0
 10
747.38003586
 20
1555.22388822
 42
-0.53724555
  0
VERTEX
  8
0
 10
750.42111718
 20
1561.16093036
 42
0.86490825
  0
VERTEX
  8
0
 10
751.96906785
 20
1607.76577833
  0
VERTEX
  8
0
 10
791.20939872
 20
1675.43819852
  0
VERTEX
  8
0
 10
826.17696095
 20
1735.74271262
  0
VERTEX
  8
0
 10
826.78280765
 20
1737.77270495
  0
VERTEX
  8
0
 10
827.36542688
 20
1739.80856412
  0
VERTEX
  8
0
 10
827.92462027
 20
1741.85005997
  0
VERTEX
  8
0
 10
828.46018947
 20
1743.89696230
  0
VERTEX
  8
0
 10
828.97193611
 20
1745.94904096
  0
VERTEX
  8
0
 10
829.45966186
 20
1748.00606577
  0
VERTEX
  8
0
 10
829.92316832
 20
1750.06780655
  0
VERTEX
  8
0
 10
830.36225718
 20
1752.13403313
  0
VERTEX
  8
0
 10
830.77673005
 20
1754.20451535
  0
VERTEX
  8
0
 10
831.16638859
 20
1756.27902301
  0
VERTEX
  8
0
 10
831.53103444
 20
1758.35732595
  0
VERTEX
  8
0
 10
831.87046924
 20
1760.43919401
  0
VERTEX
  8
0
 10
832.18449463
 20
1762.52439699
  0
VERTEX
  8
0
 10
832.47291225
 20
1764.61270473
  0
VERTEX
  8
0
 10
832.73552374
 20
1766.70388707
  0
VERTEX
  8
0
 10
832.97213077
 20
1768.79771382
  0
VERTEX
  8
0
 10
833.18253495
 20
1770.89395481
  0
VERTEX
  8
0
 10
833.36653794
 20
1772.99237986
  0
VERTEX
  8
0
 10
833.52394138
 20
1775.09275881
  0
VERTEX
  8
0
 10
833.65454691
 20
1777.19486148
  0
VERTEX
  8
0
 10
833.75815618
 20
1779.29845770
  0
VERTEX
  8
0
 10
833.83457081
 20
1781.40331728
  0
VERTEX
  8
0
 10
833.88359248
 20
1783.50921008
  0
VERTEX
  8
0
 10
833.90502281
 20
1785.61590589
  0
VERTEX
  8
0
 10
833.89866343
 20
1787.72317456
  0
VERTEX
  8
0
 10
833.86431601
 20
1789.83078591
  0
VERTEX
  8
0
 10
833.80178217
 20
1791.93850976
  0
VERTEX
  8
0
 10
833.71086357
 20
1794.04611595
  0
VERTEX
  8
0
 10
833.59136186
 20
1796.15337431
  0
VERTEX
  8
0
 10
833.44307865
 20
1798.26005464
  0
VERTEX
  8
0
 10
833.26581561
 20
1800.36592680
  0
VERTEX
  8
0
 10
833.05937438
 20
1802.47076058
  0
VERTEX
  8
0
 10
832.67233479
 20
1805.91062899
  0
VERTEX
  8
0
 10
832.23581813
 20
1809.34179521
  0
VERTEX
  8
0
 10
831.75104648
 20
1812.76433567
  0
VERTEX
  8
0
 10
831.21924195
 20
1816.17832680
  0
VERTEX
  8
0
 10
830.64162667
 20
1819.58384502
  0
VERTEX
  8
0
 10
830.01942274
 20
1822.98096675
  0
VERTEX
  8
0
 10
829.35385225
 20
1826.36976845
  0
VERTEX
  8
0
 10
828.64613735
 20
1829.75032650
  0
VERTEX
  8
0
 10
827.89750012
 20
1833.12271736
  0
VERTEX
  8
0
 10
827.10916267
 20
1836.48701745
  0
VERTEX
  8
0
 10
826.28234712
 20
1839.84330320
  0
VERTEX
  8
0
 10
825.41827559
 20
1843.19165103
  0
VERTEX
  8
0
 10
824.51817016
 20
1846.53213738
  0
VERTEX
  8
0
 10
823.58325298
 20
1849.86483866
  0
VERTEX
  8
0
 10
822.61474612
 20
1853.18983131
  0
VERTEX
  8
0
 10
821.61387171
 20
1856.50719175
  0
VERTEX
  8
0
 10
820.58185187
 20
1859.81699642
  0
VERTEX
  8
0
 10
819.51990868
 20
1863.11932173
  0
VERTEX
  8
0
 10
818.42926428
 20
1866.41424411
  0
VERTEX
  8
0
 10
817.31114076
 20
1869.70184000
  0
VERTEX
  8
0
 10
816.16676024
 20
1872.98218582
  0
VERTEX
  8
0
 10
814.99734482
 20
1876.25535800
  0
VERTEX
  8
0
 10
813.80411663
 20
1879.52143296
  0
VERTEX
  8
0
 10
812.58829777
 20
1882.78048714
  0
VERTEX
  8
0
 10
811.35111034
 20
1886.03259695
  0
VERTEX
  8
0
 10
810.09377645
 20
1889.27783883
  0
VERTEX
  8
0
 10
808.81751822
 20
1892.51628921
  0
VERTEX
  8
0
 10
807.52355776
 20
1895.74802451
  0
VERTEX
  8
0
 10
806.21311718
 20
1898.97312116
  0
VERTEX
  8
0
 10
804.88741859
 20
1902.19165558
  0
VERTEX
  8
0
 10
802.19513579
 20
1908.60934347
  0
VERTEX
  8
0
 10
800.93935684
 20
1911.52173770
  0
VERTEX
  8
0
 10
799.64930868
 20
1914.41833288
  0
VERTEX
  8
0
 10
798.32466242
 20
1917.29846969
  0
VERTEX
  8
0
 10
796.96508916
 20
1920.16148878
  0
VERTEX
  8
0
 10
795.57025999
 20
1923.00673085
  0
VERTEX
  8
0
 10
794.13984604
 20
1925.83353656
  0
VERTEX
  8
0
 10
792.67351839
 20
1928.64124658
  0
VERTEX
  8
0
 10
791.17094815
 20
1931.42920159
  0
VERTEX
  8
0
 10
789.63180642
 20
1934.19674226
  0
VERTEX
  8
0
 10
788.05576430
 20
1936.94320925
  0
VERTEX
  8
0
 10
786.44249291
 20
1939.66794325
  0
VERTEX
  8
0
 10
784.79166332
 20
1942.37028492
  0
VERTEX
  8
0
 10
783.10294667
 20
1945.04957495
  0
VERTEX
  8
0
 10
781.37601403
 20
1947.70515399
  0
VERTEX
  8
0
 10
779.61053653
 20
1950.33636272
  0
VERTEX
  8
0
 10
777.80618525
 20
1952.94254183
  0
VERTEX
  8
0
 10
691.42741072
 20
2074.40000806
 42
-0.29882803
  0
VERTEX
  8
0
 10
690.60612300
 20
2096.33109812
  0
VERTEX
  8
0
 10
690.83611583
 20
2096.73287086
  0
VERTEX
  8
0
 10
691.08310910
 20
2097.11893114
  0
VERTEX
  8
0
 10
691.34637908
 20
2097.48904590
  0
VERTEX
  8
0
 10
691.62520203
 20
2097.84298208
  0
VERTEX
  8
0
 10
691.91885419
 20
2098.18050662
  0
VERTEX
  8
0
 10
692.22661182
 20
2098.50138646
  0
VERTEX
  8
0
 10
692.54775116
 20
2098.80538856
  0
VERTEX
  8
0
 10
692.88154846
 20
2099.09227986
  0
VERTEX
  8
0
 10
693.22727999
 20
2099.36182729
  0
VERTEX
  8
0
 10
693.58422198
 20
2099.61379780
  0
VERTEX
  8
0
 10
693.95165069
 20
2099.84795834
  0
VERTEX
  8
0
 10
694.32884238
 20
2100.06407587
  0
VERTEX
  8
0
 10
694.71507328
 20
2100.26191731
  0
VERTEX
  8
0
 10
695.10961966
 20
2100.44124960
  0
VERTEX
  8
0
 10
695.51175776
 20
2100.60183970
  0
VERTEX
  8
0
 10
695.92076383
 20
2100.74345456
  0
VERTEX
  8
0
 10
696.33591413
 20
2100.86586110
  0
VERTEX
  8
0
 10
696.75648491
 20
2100.96882629
  0
VERTEX
  8
0
 10
697.18175242
 20
2101.05211706
  0
VERTEX
  8
0
 10
697.61099290
 20
2101.11550035
  0
VERTEX
  8
0
 10
698.04348262
 20
2101.15874312
  0
VERTEX
  8
0
 10
698.47849781
 20
2101.18161230
  0
VERTEX
  8
0
 10
698.91531474
 20
2101.18387484
  0
VERTEX
  8
0
 10
699.35320965
 20
2101.16529768
  0
VERTEX
  8
0
 10
699.79145879
 20
2101.12564776
  0
VERTEX
  8
0
 10
700.22933843
 20
2101.06469204
  0
VERTEX
  8
0
 10
700.66612480
 20
2100.98219747
  0
VERTEX
  8
0
 10
701.10109416
 20
2100.87793097
  0
VERTEX
  8
0
 10
701.53352275
 20
2100.75165948
  0
VERTEX
  8
0
 10
701.96268684
 20
2100.60314998
  0
VERTEX
  8
0
 10
702.38786266
 20
2100.43216939
  0
VERTEX
  8
0
 10
702.80832648
 20
2100.23848465
  0
VERTEX
  8
0
 10
708.04109982
 20
2093.17662203
  0
VERTEX
  8
0
 10
708.59171253
 20
2092.84452864
  0
VERTEX
  8
0
 10
709.15241269
 20
2092.54385485
  0
VERTEX
  8
0
 10
709.72212062
 20
2092.27436410
  0
VERTEX
  8
0
 10
710.29975671
 20
2092.03581980
  0
VERTEX
  8
0
 10
710.88424133
 20
2091.82798540
  0
VERTEX
  8
0
 10
711.47449483
 20
2091.65062432
  0
VERTEX
  8
0
 10
712.06943758
 20
2091.50350000
  0
VERTEX
  8
0
 10
712.66798995
 20
2091.38637586
  0
VERTEX
  8
0
 10
713.26907232
 20
2091.29901534
  0
VERTEX
  8
0
 10
713.87160503
 20
2091.24118186
  0
VERTEX
  8
0
 10
714.47450844
 20
2091.21263887
  0
VERTEX
  8
0
 10
715.07670294
 20
2091.21314978
  0
VERTEX
  8
0
 10
715.67710889
 20
2091.24247804
  0
VERTEX
  8
0
 10
716.27464665
 20
2091.30038706
  0
VERTEX
  8
0
 10
716.86823658
 20
2091.38664029
  0
VERTEX
  8
0
 10
717.45679906
 20
2091.50100116
  0
VERTEX
  8
0
 10
718.03925444
 20
2091.64323310
  0
VERTEX
  8
0
 10
718.61452309
 20
2091.81309952
  0
VERTEX
  8
0
 10
719.18152539
 20
2092.01036387
  0
VERTEX
  8
0
 10
719.73918169
 20
2092.23478958
  0
VERTEX
  8
0
 10
720.28641235
 20
2092.48614008
  0
VERTEX
  8
0
 10
720.82213776
 20
2092.76417881
  0
VERTEX
  8
0
 10
721.34527826
 20
2093.06866918
  0
VERTEX
  8
0
 10
721.85475422
 20
2093.39937464
  0
VERTEX
  8
0
 10
722.34948602
 20
2093.75605861
  0
VERTEX
  8
0
 10
722.82839402
 20
2094.13848453
  0
VERTEX
  8
0
 10
723.29039857
 20
2094.54641582
  0
VERTEX
  8
0
 10
723.73442006
 20
2094.97961592
  0
VERTEX
  8
0
 10
724.15937884
 20
2095.43784825
  0
VERTEX
  8
0
 10
724.56419527
 20
2095.92087626
  0
VERTEX
  8
0
 10
724.94778973
 20
2096.42846337
  0
VERTEX
  8
0
 10
725.30908258
 20
2096.96037300
  0
VERTEX
  8
0
 10
725.57036258
 20
2097.38465164
  0
VERTEX
  8
0
 10
725.81288018
 20
2097.81516355
  0
VERTEX
  8
0
 10
726.03674252
 20
2098.25141146
  0
VERTEX
  8
0
 10
726.24205673
 20
2098.69289810
  0
VERTEX
  8
0
 10
726.42892999
 20
2099.13912617
  0
VERTEX
  8
0
 10
726.59746943
 20
2099.58959840
  0
VERTEX
  8
0
 10
726.74778220
 20
2100.04381751
  0
VERTEX
  8
0
 10
726.87997543
 20
2100.50128621
  0
VERTEX
  8
0
 10
726.99415630
 20
2100.96150721
  0
VERTEX
  8
0
 10
727.09043192
 20
2101.42398326
  0
VERTEX
  8
0
 10
727.16890947
 20
2101.88821705
  0
VERTEX
  8
0
 10
727.22969608
 20
2102.35371132
  0
VERTEX
  8
0
 10
727.27289889
 20
2102.81996877
  0
VERTEX
  8
0
 10
727.29862507
 20
2103.28649213
  0
VERTEX
  8
0
 10
727.30698175
 20
2103.75278412
  0
VERTEX
  8
0
 10
727.29807608
 20
2104.21834746
  0
SEQEND
  0
POLYLINE
  8
METAL_FRAME
 62
256
 66
   1
 39
0.000000
 70
    1
  0
VERTEX
  8
0
 10
918.28193104
 20
1849.70398157
 42
-0.41421356
  0
VERTEX
  8
0
 10
901.61427107
 20
1881.68349237
 42
-0.41421356
  0
VERTEX
  8
0
 10
933.59378188
 20
1898.35115234
  0
VERTEX
  8
0
 10
962.60448654
 20
1889.21994131
 42
-0.41421356
  0
VERTEX
  8
0
 10
979.27214651
 20
1857.24043050
 42
-0.41421356
  0
VERTEX
  8
0
 10
947.29263570
 20
1840.57277054
  0
VERTEX
  8
0
 10
918.28193104
 20
1849.70398157
  0
SEQEND
  0
ENDSEC
  0
EOF
