  0
SECTION
  2
HEADER
  9
$ACADVER
  1
AC1018
  9
$ACADMAINTVER
 70
     0
  9
$DWGCODEPAGE
  3
ANSI_936
  9
$INSBASE
 10
0.0
 20
0.0
 30
0.0
  9
$EXTMIN
 10
1.000000000000000E+20
 20
1.000000000000000E+20
 30
1.000000000000000E+20
  9
$EXTMAX
 10
-1.000000000000000E+20
 20
-1.000000000000000E+20
 30
-1.000000000000000E+20
  9
$LIMMIN
 10
0.0
 20
0.0
  9
$LIMMAX
 10
12.0
 20
9.0
  9
$ORTHOMODE
 70
     0
  9
$REGENMODE
 70
     1
  9
$FILLMODE
 70
     1
  9
$QTEXTMODE
 70
     0
  9
$MIRRTEXT
 70
     1
  9
$LTSCALE
 40
1.0
  9
$ATTMODE
 70
     1
  9
$TEXTSIZE
 40
0.2
  9
$TRACEWID
 40
0.05
  9
$TEXTSTYLE
  7
Standard
  9
$CLAYER
  8
0
  9
$CELTYPE
  6
ByLayer
  9
$CECOLOR
 62
   256
  9
$CELTSCALE
 40
1.0
  9
$DISPSILH
 70
     0
  9
$DIMSCALE
 40
1.0
  9
$DIMASZ
 40
0.18
  9
$DIMEXO
 40
0.0625
  9
$DIMDLI
 40
0.38
  9
$DIMRND
 40
0.0
  9
$DIMDLE
 40
0.0
  9
$DIMEXE
 40
0.18
  9
$DIMTP
 40
0.0
  9
$DIMTM
 40
0.0
  9
$DIMTXT
 40
0.18
  9
$DIMCEN
 40
0.09
  9
$DIMTSZ
 40
0.0
  9
$DIMTOL
 70
     0
  9
$DIMLIM
 70
     0
  9
$DIMTIH
 70
     1
  9
$DIMTOH
 70
     1
  9
$DIMSE1
 70
     0
  9
$DIMSE2
 70
     0
  9
$DIMTAD
 70
     0
  9
$DIMZIN
 70
     0
  9
$DIMBLK
  1

  9
$DIMASO
 70
     1
  9
$DIMSHO
 70
     1
  9
$DIMPOST
  1

  9
$DIMAPOST
  1

  9
$DIMALT
 70
     0
  9
$DIMALTD
 70
     2
  9
$DIMALTF
 40
25.4
  9
$DIMLFAC
 40
1.0
  9
$DIMTOFL
 70
     0
  9
$DIMTVP
 40
0.0
  9
$DIMTIX
 70
     0
  9
$DIMSOXD
 70
     0
  9
$DIMSAH
 70
     0
  9
$DIMBLK1
  1

  9
$DIMBLK2
  1

  9
$DIMSTYLE
  2
Standard
  9
$DIMCLRD
 70
     0
  9
$DIMCLRE
 70
     0
  9
$DIMCLRT
 70
     0
  9
$DIMTFAC
 40
1.0
  9
$DIMGAP
 40
0.09
  9
$DIMJUST
 70
     0
  9
$DIMSD1
 70
     0
  9
$DIMSD2
 70
     0
  9
$DIMTOLJ
 70
     1
  9
$DIMTZIN
 70
     0
  9
$DIMALTZ
 70
     0
  9
$DIMALTTZ
 70
     0
  9
$DIMUPT
 70
     0
  9
$DIMDEC
 70
     4
  9
$DIMTDEC
 70
     4
  9
$DIMALTU
 70
     2
  9
$DIMALTTD
 70
     2
  9
$DIMTXSTY
  7
Standard
  9
$DIMAUNIT
 70
     0
  9
$DIMADEC
 70
     0
  9
$DIMALTRND
 40
0.0
  9
$DIMAZIN
 70
     0
  9
$DIMDSEP
 70
    46
  9
$DIMATFIT
 70
     3
  9
$DIMFRAC
 70
     0
  9
$DIMLDRBLK
  1

  9
$DIMLUNIT
 70
     2
  9
$DIMLWD
 70
    -2
  9
$DIMLWE
 70
    -2
  9
$DIMTMOVE
 70
     0
  9
$LUNITS
 70
     2
  9
$LUPREC
 70
     4
  9
$SKETCHINC
 40
0.1
  9
$FILLETRAD
 40
0.5
  9
$AUNITS
 70
     0
  9
$AUPREC
 70
     0
  9
$MENU
  1
.
  9
$ELEVATION
 40
0.0
  9
$PELEVATION
 40
0.0
  9
$THICKNESS
 40
0.0
  9
$LIMCHECK
 70
     0
  9
$CHAMFERA
 40
0.5
  9
$CHAMFERB
 40
0.5
  9
$CHAMFERC
 40
1.0
  9
$CHAMFERD
 40
0.0
  9
$SKPOLY
 70
     0
  9
$TDCREATE
 40
2456414.728777373
  9
$TDUCREATE
 40
2456414.645444039
  9
$TDUPDATE
 40
2456414.728777384
  9
$TDUUPDATE
 40
2456414.645444051
  9
$TDINDWG
 40
0.0000000116
  9
$TDUSRTIMER
 40
0.0000000116
  9
$USRTIMER
 70
     1
  9
$ANGBASE
 50
0.0
  9
$ANGDIR
 70
     0
  9
$PDMODE
 70
     0
  9
$PDSIZE
 40
0.0
  9
$PLINEWID
 40
0.0
  9
$SPLFRAME
 70
     0
  9
$SPLINETYPE
 70
     6
  9
$SPLINESEGS
 70
     8
  9
$HANDSEED
  5
70
  9
$SURFTAB1
 70
     6
  9
$SURFTAB2
 70
     6
  9
$SURFTYPE
 70
     6
  9
$SURFU
 70
     6
  9
$SURFV
 70
     6
  9
$UCSBASE
  2

  9
$UCSNAME
  2

  9
$UCSORG
 10
0.0
 20
0.0
 30
0.0
  9
$UCSXDIR
 10
1.0
 20
0.0
 30
0.0
  9
$UCSYDIR
 10
0.0
 20
1.0
 30
0.0
  9
$UCSORTHOREF
  2

  9
$UCSORTHOVIEW
 70
     0
  9
$UCSORGTOP
 10
0.0
 20
0.0
 30
0.0
  9
$UCSORGBOTTOM
 10
0.0
 20
0.0
 30
0.0
  9
$UCSORGLEFT
 10
0.0
 20
0.0
 30
0.0
  9
$UCSORGRIGHT
 10
0.0
 20
0.0
 30
0.0
  9
$UCSORGFRONT
 10
0.0
 20
0.0
 30
0.0
  9
$UCSORGBACK
 10
0.0
 20
0.0
 30
0.0
  9
$PUCSBASE
  2

  9
$PUCSNAME
  2

  9
$PUCSORG
 10
0.0
 20
0.0
 30
0.0
  9
$PUCSXDIR
 10
1.0
 20
0.0
 30
0.0
  9
$PUCSYDIR
 10
0.0
 20
1.0
 30
0.0
  9
$PUCSORTHOREF
  2

  9
$PUCSORTHOVIEW
 70
     0
  9
$PUCSORGTOP
 10
0.0
 20
0.0
 30
0.0
  9
$PUCSORGBOTTOM
 10
0.0
 20
0.0
 30
0.0
  9
$PUCSORGLEFT
 10
0.0
 20
0.0
 30
0.0
  9
$PUCSORGRIGHT
 10
0.0
 20
0.0
 30
0.0
  9
$PUCSORGFRONT
 10
0.0
 20
0.0
 30
0.0
  9
$PUCSORGBACK
 10
0.0
 20
0.0
 30
0.0
  9
$USERI1
 70
     0
  9
$USERI2
 70
     0
  9
$USERI3
 70
     0
  9
$USERI4
 70
     0
  9
$USERI5
 70
     0
  9
$USERR1
 40
0.0
  9
$USERR2
 40
0.0
  9
$USERR3
 40
0.0
  9
$USERR4
 40
0.0
  9
$USERR5
 40
0.0
  9
$WORLDVIEW
 70
     1
  9
$SHADEDGE
 70
     3
  9
$SHADEDIF
 70
    70
  9
$TILEMODE
 70
     1
  9
$MAXACTVP
 70
    64
  9
$PINSBASE
 10
0.0
 20
0.0
 30
0.0
  9
$PLIMCHECK
 70
     0
  9
$PEXTMIN
 10
1.000000000000000E+20
 20
1.000000000000000E+20
 30
1.000000000000000E+20
  9
$PEXTMAX
 10
-1.000000000000000E+20
 20
-1.000000000000000E+20
 30
-1.000000000000000E+20
  9
$PLIMMIN
 10
0.0
 20
0.0
  9
$PLIMMAX
 10
12.0
 20
9.0
  9
$UNITMODE
 70
     0
  9
$VISRETAIN
 70
     1
  9
$PLINEGEN
 70
     0
  9
$PSLTSCALE
 70
     1
  9
$TREEDEPTH
 70
  3020
  9
$CMLSTYLE
  2
Standard
  9
$CMLJUST
 70
     0
  9
$CMLSCALE
 40
1.0
  9
$PROXYGRAPHICS
 70
     1
  9
$MEASUREMENT
 70
     0
  9
$CELWEIGHT
370
    -1
  9
$ENDCAPS
280
     0
  9
$JOINSTYLE
280
     0
  9
$LWDISPLAY
290
     1
  9
$INSUNITS
 70
     1
  9
$HYPERLINKBASE
  1

  9
$STYLESHEET
  1

  9
$XEDIT
290
     1
  9
$CEPSNTYPE
380
     0
  9
$PSTYLEMODE
290
     1
  9
$FINGERPRINTGUID
  2
{F72FD0A1-4D87-4B46-A336-95B8349CDAA9}
  9
$VERSIONGUID
  2
{FAEB1C32-E019-11D5-929B-00C0DF256EC4}
  9
$EXTNAMES
290
     1
  9
$PSVPSCALE
 40
0.0
  9
$OLESTARTUP
290
     0
  9
$SORTENTS
280
   127
  9
$INDEXCTL
280
     0
  9
$HIDETEXT
280
     1
  9
$XCLIPFRAME
290
     0
  9
$HALOGAP
280
     0
  9
$OBSCOLOR
 70
   257
  9
$OBSLTYPE
280
     0
  9
$INTERSECTIONDISPLAY
280
     0
  9
$INTERSECTIONCOLOR
 70
   257
  9
$DIMASSOC
280
     2
  9
$PROJECTNAME
  1

  0
ENDSEC
  0
SECTION
  2
CLASSES
  0
CLASS
  1
ACDBDICTIONARYWDFLT
  2
AcDbDictionaryWithDefault
  3
ObjectDBX Classes
 90
        0
 91
        3
280
     0
281
     0
  0
CLASS
  1
VISUALSTYLE
  2
AcDbVisualStyle
  3
ObjectDBX Classes
 90
     4095
 91
        3
280
     0
281
     0
  0
ENDSEC
  0
SECTION
  2
TABLES
  0
TABLE
  2
VPORT
  5
8
330
0
100
AcDbSymbolTable
 70
     1
  0
VPORT
  5
29
330
8
100
AcDbSymbolTableRecord
100
AcDbViewportTableRecord
  2
*Active
 70
     0
 10
0.0
 20
0.0
 11
1.0
 21
1.0
 12
0.0
 22
0.0
 13
0.0
 23
0.0
 14
0.5
 24
0.5
 15
0.5
 25
0.5
 16
0.0
 26
0.0
 36
1.0
 17
104.9513027352639
 27
148.343141645857
 37
0.0
 40
1999.999368803386
 41
1.0
 42
50.0
 43
0.0
 44
0.0
 50
0.0
 51
0.0
 71
     0
 72
   100
 73
     1
 74
     3
 75
     0
 76
     0
 77
     0
 78
     0
281
     0
 65
     1
110
0.0
120
0.0
130
0.0
111
1.0
121
0.0
131
0.0
112
0.0
122
1.0
132
0.0
 79
     0
146
0.0
  0
ENDTAB
  0
TABLE
  2
LTYPE
  5
5
330
0
100
AcDbSymbolTable
 70
     1
  0
LTYPE
  5
14
330
5
100
AcDbSymbolTableRecord
100
AcDbLinetypeTableRecord
  2
ByBlock
 70
     0
  3

 72
    65
 73
     0
 40
0.0
  0
LTYPE
  5
15
330
5
100
AcDbSymbolTableRecord
100
AcDbLinetypeTableRecord
  2
ByLayer
 70
     0
  3

 72
    65
 73
     0
 40
0.0
  0
LTYPE
  5
16
330
5
100
AcDbSymbolTableRecord
100
AcDbLinetypeTableRecord
  2
Continuous
 70
     0
  3
Solid line
 72
    65
 73
     0
 40
0.0
  0
ENDTAB
  0
TABLE
  2
LAYER
  5
2
330
0
100
AcDbSymbolTable
 70
     2
  0
LAYER
  5
10
330
2
100
AcDbSymbolTableRecord
100
AcDbLayerTableRecord
  2
0
 70
     0
 62
     7
  6
Continuous
370
    -3
390
F
  0
LAYER
  5
3B
330
2
100
AcDbSymbolTableRecord
100
AcDbLayerTableRecord
  2
Layer 1
 70
     0
 62
     7
  6
Continuous
370
    -3
390
F
  0
ENDTAB
  0
TABLE
  2
STYLE
  5
3
330
0
100
AcDbSymbolTable
 70
     1
  0
STYLE
  5
11
330
3
100
AcDbSymbolTableRecord
100
AcDbTextStyleTableRecord
  2
Standard
 70
     0
 40
0.0
 41
1.0
 50
0.0
 71
     0
 42
0.2
  3
txt
  4

  0
ENDTAB
  0
TABLE
  2
VIEW
  5
6
330
0
100
AcDbSymbolTable
 70
     0
  0
ENDTAB
  0
TABLE
  2
UCS
  5
7
330
0
100
AcDbSymbolTable
 70
     0
  0
ENDTAB
  0
TABLE
  2
APPID
  5
9
330
0
100
AcDbSymbolTable
 70
     1
  0
APPID
  5
12
330
9
100
AcDbSymbolTableRecord
100
AcDbRegAppTableRecord
  2
ACAD
 70
     0
  0
ENDTAB
  0
TABLE
  2
DIMSTYLE
  5
A
330
0
100
AcDbSymbolTable
 70
     1
100
AcDbDimStyleTable
  0
DIMSTYLE
105
27
330
A
100
AcDbSymbolTableRecord
100
AcDbDimStyleTableRecord
  2
Standard
 70
     0
340
11
  0
ENDTAB
  0
TABLE
  2
BLOCK_RECORD
  5
1
330
0
100
AcDbSymbolTable
 70
     1
  0
BLOCK_RECORD
  5
1F
330
1
100
AcDbSymbolTableRecord
100
AcDbBlockTableRecord
  2
*Model_Space
340
22
  0
BLOCK_RECORD
  5
1B
330
1
100
AcDbSymbolTableRecord
100
AcDbBlockTableRecord
  2
*Paper_Space
340
1E
  0
BLOCK_RECORD
  5
23
330
1
100
AcDbSymbolTableRecord
100
AcDbBlockTableRecord
  2
*Paper_Space0
340
26
  0
ENDTAB
  0
ENDSEC
  0
SECTION
  2
BLOCKS
  0
BLOCK
  5
20
330
1F
100
AcDbEntity
  8
0
100
AcDbBlockBegin
  2
*Model_Space
 70
     0
 71
     0
 10
0.0
 20
0.0
 30
0.0
  3
*Model_Space
  1

  0
ENDBLK
  5
21
330
1F
100
AcDbEntity
  8
0
100
AcDbBlockEnd
  0
BLOCK
  5
1C
330
1B
100
AcDbEntity
 67
     1
  8
0
100
AcDbBlockBegin
  2
*Paper_Space
 70
     0
 71
     0
 10
0.0
 20
0.0
 30
0.0
  3
*Paper_Space
  1

  0
ENDBLK
  5
1D
330
1B
100
AcDbEntity
 67
     1
  8
0
100
AcDbBlockEnd
  0
BLOCK
  5
24
330
23
100
AcDbEntity
  8
0
100
AcDbBlockBegin
  2
*Paper_Space0
 70
     0
 71
     0
 10
0.0
 20
0.0
 30
0.0
  3
*Paper_Space0
  1

  0
ENDBLK
  5
25
330
23
100
AcDbEntity
  8
0
100
AcDbBlockEnd
  0
ENDSEC
  0
SECTION
  2
ENTITIES
  0
SPLINE
  5
3C
330
1F
100
AcDbEntity
  8
Layer 1
 62
     7
420
 16777215
370
     9
100
AcDbSpline
210
0.0
220
0.0
230
1.0
 70
    11
 71
     3
 72
   317
 73
   313
 74
     0
 42
0.0000000001
 43
0.0000000001
 40
0.0
 40
0.0
 40
0.0
 40
0.0
 40
1.0
 40
1.0
 40
1.0
 40
2.0
 40
2.0
 40
2.0
 40
3.0
 40
3.0
 40
3.0
 40
4.0
 40
4.0
 40
4.0
 40
5.0
 40
5.0
 40
5.0
 40
6.0
 40
6.0
 40
6.0
 40
7.0
 40
7.0
 40
7.0
 40
8.0
 40
8.0
 40
8.0
 40
9.0
 40
9.0
 40
9.0
 40
10.0
 40
10.0
 40
10.0
 40
11.0
 40
11.0
 40
11.0
 40
12.0
 40
12.0
 40
12.0
 40
13.0
 40
13.0
 40
13.0
 40
14.0
 40
14.0
 40
14.0
 40
15.0
 40
15.0
 40
15.0
 40
16.0
 40
16.0
 40
16.0
 40
17.0
 40
17.0
 40
17.0
 40
18.0
 40
18.0
 40
18.0
 40
19.0
 40
19.0
 40
19.0
 40
20.0
 40
20.0
 40
20.0
 40
21.0
 40
21.0
 40
21.0
 40
22.0
 40
22.0
 40
22.0
 40
23.0
 40
23.0
 40
23.0
 40
24.0
 40
24.0
 40
24.0
 40
25.0
 40
25.0
 40
25.0
 40
26.0
 40
26.0
 40
26.0
 40
27.0
 40
27.0
 40
27.0
 40
28.0
 40
28.0
 40
28.0
 40
29.0
 40
29.0
 40
29.0
 40
30.0
 40
30.0
 40
30.0
 40
31.0
 40
31.0
 40
31.0
 40
32.0
 40
32.0
 40
32.0
 40
33.0
 40
33.0
 40
33.0
 40
34.0
 40
34.0
 40
34.0
 40
35.0
 40
35.0
 40
35.0
 40
36.0
 40
36.0
 40
36.0
 40
37.0
 40
37.0
 40
37.0
 40
38.0
 40
38.0
 40
38.0
 40
39.0
 40
39.0
 40
39.0
 40
40.0
 40
40.0
 40
40.0
 40
41.0
 40
41.0
 40
41.0
 40
42.0
 40
42.0
 40
42.0
 40
43.0
 40
43.0
 40
43.0
 40
44.0
 40
44.0
 40
44.0
 40
45.0
 40
45.0
 40
45.0
 40
46.0
 40
46.0
 40
46.0
 40
47.0
 40
47.0
 40
47.0
 40
48.0
 40
48.0
 40
48.0
 40
49.0
 40
49.0
 40
49.0
 40
50.0
 40
50.0
 40
50.0
 40
51.0
 40
51.0
 40
51.0
 40
52.0
 40
52.0
 40
52.0
 40
53.0
 40
53.0
 40
53.0
 40
54.0
 40
54.0
 40
54.0
 40
55.0
 40
55.0
 40
55.0
 40
56.0
 40
56.0
 40
56.0
 40
57.0
 40
57.0
 40
57.0
 40
58.0
 40
58.0
 40
58.0
 40
59.0
 40
59.0
 40
59.0
 40
60.0
 40
60.0
 40
60.0
 40
61.0
 40
61.0
 40
61.0
 40
62.0
 40
62.0
 40
62.0
 40
63.0
 40
63.0
 40
63.0
 40
64.0
 40
64.0
 40
64.0
 40
65.0
 40
65.0
 40
65.0
 40
66.0
 40
66.0
 40
66.0
 40
67.0
 40
67.0
 40
67.0
 40
68.0
 40
68.0
 40
68.0
 40
69.0
 40
69.0
 40
69.0
 40
70.0
 40
70.0
 40
70.0
 40
71.0
 40
71.0
 40
71.0
 40
72.0
 40
72.0
 40
72.0
 40
73.0
 40
73.0
 40
73.0
 40
74.0
 40
74.0
 40
74.0
 40
75.0
 40
75.0
 40
75.0
 40
76.0
 40
76.0
 40
76.0
 40
77.0
 40
77.0
 40
77.0
 40
78.0
 40
78.0
 40
78.0
 40
79.0
 40
79.0
 40
79.0
 40
80.0
 40
80.0
 40
80.0
 40
81.0
 40
81.0
 40
81.0
 40
82.0
 40
82.0
 40
82.0
 40
83.0
 40
83.0
 40
83.0
 40
84.0
 40
84.0
 40
84.0
 40
85.0
 40
85.0
 40
85.0
 40
86.0
 40
86.0
 40
86.0
 40
87.0
 40
87.0
 40
87.0
 40
88.0
 40
88.0
 40
88.0
 40
89.0
 40
89.0
 40
89.0
 40
90.0
 40
90.0
 40
90.0
 40
91.0
 40
91.0
 40
91.0
 40
92.0
 40
92.0
 40
92.0
 40
93.0
 40
93.0
 40
93.0
 40
94.0
 40
94.0
 40
94.0
 40
95.0
 40
95.0
 40
95.0
 40
96.0
 40
96.0
 40
96.0
 40
97.0
 40
97.0
 40
97.0
 40
98.0
 40
98.0
 40
98.0
 40
99.0
 40
99.0
 40
99.0
 40
100.0
 40
100.0
 40
100.0
 40
101.0
 40
101.0
 40
101.0
 40
102.0
 40
102.0
 40
102.0
 40
103.0
 40
103.0
 40
103.0
 40
104.0
 40
104.0
 40
104.0
 40
104.0
 10
-51.53673365682068
 20
566.2281424908215
 30
0.0
 10
-53.25721434215445
 20
535.3790349681518
 30
0.0
 10
-55.54441323481181
 20
505.0980236909998
 30
0.0
 10
-57.18048908075696
 20
474.16485583849
 30
0.0
 10
-98.13509519030998
 20
451.950191130502
 30
0.0
 10
-150.0075534021683
 20
435.6655692812746
 30
0.0
 10
-207.092096573661
 20
428.6620346693102
 30
0.0
 10
-236.5183796609225
 20
425.0519191103169
 30
0.0
 10
-272.7628512230419
 20
422.2531235380999
 30
0.0
 10
-294.2175278669838
 20
432.8950234920367
 30
0.0
 10
-315.9467786211001
 20
443.6730047176408
 30
0.0
 10
-324.4399725208866
 20
467.7611123505077
 30
0.0
 10
-321.0255383854554
 20
502.3836329581715
 30
0.0
 10
-322.1203897306679
 20
502.9176227583852
 30
0.0
 10
-323.5187539881308
 20
500.791309824889
 30
0.0
 10
-324.9054049209438
 20
499.5617552462033
 30
0.0
 10
-345.1505085400145
 20
481.6141858062458
 30
0.0
 10
-368.0696952747361
 20
463.5815225078026
 30
0.0
 10
-393.3360255635584
 20
450.1794120510837
 30
0.0
 10
-421.075245391693
 20
435.4654092335816
 30
0.0
 10
-452.9940550625328
 20
426.6666353642535
 30
0.0
 10
-493.5125120836531
 20
424.7825126433704
 30
0.0
 10
-534.451959773071
 20
422.8787528782213
 30
0.0
 10
-564.6268621092773
 20
436.6897961690394
 30
0.0
 10
-584.1650321347747
 20
458.9978229646777
 30
0.0
 10
-604.377751856284
 20
482.0761731108178
 30
0.0
 10
-614.2820568668288
 20
513.2325831507717
 30
0.0
 10
-612.0310314767665
 20
555.2940984397355
 30
0.0
 10
-609.9498492941271
 20
594.1757905958137
 30
0.0
 10
-598.3715723872995
 20
624.5560206229409
 30
0.0
 10
-579.2264877566691
 20
648.0629406474461
 30
0.0
 10
-560.5523476788724
 20
670.992118159075
 30
0.0
 10
-535.8141505279389
 20
689.6707368610025
 30
0.0
 10
-507.9743339116349
 20
702.3838282206715
 30
0.0
 10
-449.7494641345245
 20
728.9730751758296
 30
0.0
 10
-376.5928615052442
 20
738.3785303601103
 30
0.0
 10
-303.7418388455055
 20
749.2970714815126
 30
0.0
 10
-303.506538823863
 20
749.2970714815126
 30
0.0
 10
-303.2715833117689
 20
749.2970714815126
 30
0.0
 10
-303.0362832901263
 20
749.2970714815126
 30
0.0
 10
-302.1729423615228
 20
775.7905447821809
 30
0.0
 10
-295.8460245028614
 20
805.9378863545052
 30
0.0
 10
-302.3307277347472
 20
829.7207585273788
 30
0.0
 10
-308.6283622817839
 20
852.8184012082364
 30
0.0
 10
-328.2237208923365
 20
860.9178206940588
 30
0.0
 10
-357.3568263538032
 20
860.7610688494799
 30
0.0
 10
-413.015444503951
 20
860.4616900518117
 30
0.0
 10
-437.3016451272197
 20
825.8253890622069
 30
0.0
 10
-454.0058796065506
 20
785.6287039594089
 30
0.0
 10
-491.8340615632394
 20
784.9045448884093
 30
0.0
 10
-530.9558768746396
 20
789.5592133985303
 30
0.0
 10
-569.3497435100063
 20
787.7450261159978
 30
0.0
 10
-581.3800169444987
 20
787.1765853609315
 30
0.0
 10
-591.730806329932
 20
784.7853445846197
 30
0.0
 10
-601.4487316747246
 20
780.6905040908517
 30
0.0
 10
-628.4848075143198
 20
769.297917830679
 30
0.0
 10
-649.9756576608568
 20
751.654550322069
 30
0.0
 10
-663.1772635603342
 20
724.9588499164166
 30
0.0
 10
-667.4788097832171
 20
716.2592947970637
 30
0.0
 10
-672.2502670302881
 20
706.6960542395586
 30
0.0
 10
-673.7588743432791
 20
696.3872950190456
 30
0.0
 10
-677.2718382095883
 20
672.3856592828585
 30
0.0
 10
-675.522763231727
 20
645.9228473320089
 30
0.0
 10
-675.522763231727
 20
619.8438190182162
 30
0.0
 10
-675.522763231727
 20
541.8434121366746
 30
0.0
 10
-675.522763231727
 20
462.7054347259035
 30
0.0
 10
-675.522763231727
 20
384.9234468981268
 30
0.0
 10
-156.2211276193649
 20
384.1000690771521
 30
0.0
 10
364.7343260806915
 20
384.8056246325312
 30
0.0
 10
884.6178383205122
 20
384.5706691204372
 30
0.0
 10
884.8534828517033
 20
384.5706691204372
 30
0.0
 10
885.0884383637974
 20
384.5706691204372
 30
0.0
 10
885.3233938758914
 20
384.5706691204372
 30
0.0
 10
885.3261499522796
 20
471.6854206177558
 30
0.0
 10
885.3192597613091
 20
562.4764335073844
 30
0.0
 10
885.3233938758914
 20
650.1789182944865
 30
0.0
 10
885.3240828949885
 20
661.8946545111756
 30
0.0
 10
885.6114038584583
 20
672.855914816595
 30
0.0
 10
884.9706160982018
 20
682.9831175050355
 30
0.0
 10
884.3119138414221
 20
693.3966076283002
 30
0.0
 10
882.5935002133795
 20
701.8739540888545
 30
0.0
 10
879.3268606742655
 20
710.4963390693378
 30
0.0
 10
873.2717608493905
 20
726.4808931017999
 30
0.0
 10
865.4410588114175
 20
740.6085406677125
 30
0.0
 10
854.2830835537903
 20
751.7658269062426
 30
0.0
 10
833.1556909809473
 20
772.8921859504402
 30
0.0
 10
804.3815644690435
 20
791.3141450387167
 30
0.0
 10
757.6336857914944
 20
787.7446816064493
 30
0.0
 10
750.3769366613641
 20
728.21859926456
 30
0.0
 10
741.949544085346
 20
664.3882146233994
 30
0.0
 10
736.8225529841972
 20
600.0903305248906
 30
0.0
 10
735.1778643995389
 20
579.4669554215395
 30
0.0
 10
733.1466361014355
 20
550.220506318608
 30
0.0
 10
750.2267304982072
 20
546.1222207293549
 30
0.0
 10
756.4210121806865
 20
544.6360065370181
 30
0.0
 10
764.1600746787517
 20
546.0502182337132
 30
0.0
 10
770.3323077501253
 20
547.1805540624237
 30
0.0
 10
786.0467662965439
 20
550.0575533021557
 30
0.0
 10
797.9984915539726
 20
555.58968763237
 30
0.0
 10
809.4858179399897
 20
562.7010537330227
 30
0.0
 10
811.4095592589532
 20
563.8920232422736
 30
0.0
 10
813.0521807863204
 20
566.2470905159903
 30
0.0
 10
815.4816621225185
 20
565.8757092226804
 30
0.0
 10
813.5765243191754
 20
550.819608423493
 30
0.0
 10
811.7912758387189
 20
535.2060911747923
 30
0.0
 10
809.8385957176793
 20
519.6673324981214
 30
0.0
 10
807.8817814820574
 20
504.1058361912479
 30
0.0
 10
806.744899971925
 20
488.3155855441537
 30
0.0
 10
804.194151274646
 20
473.8120780608005
 30
0.0
 10
803.8475746688298
 20
471.8373493286553
 30
0.0
 10
794.7780162943611
 20
467.8334593556979
 30
0.0
 10
791.8489961128017
 20
466.4047782579648
 30
0.0
 10
744.157161272294
 20
443.1393594269756
 30
0.0
 10
694.0702960504408
 20
429.4216782238078
 30
0.0
 10
625.7113333939194
 20
426.1929347350317
 30
0.0
 10
585.4677949925219
 20
424.2922755558193
 30
0.0
 10
556.8307832809312
 20
428.2103826511939
 30
0.0
 10
553.753623993506
 20
465.6992227025856
 30
0.0
 10
552.8172470406151
 20
477.1093789497331
 30
0.0
 10
554.097444522934
 20
489.5165458303119
 30
0.0
 10
555.1647351042644
 20
500.9721773378646
 30
0.0
 10
562.6068303715011
 20
580.8312132336985
 30
0.0
 10
574.2140460804048
 20
659.0989595248955
 30
0.0
 10
581.9724011131875
 20
736.9515718101197
 30
0.0
 10
584.200688873047
 20
759.3185097385558
 30
0.0
 10
586.0128090982885
 20
787.3922483383083
 30
0.0
 10
574.5647568008033
 20
801.1492036300078
 30
0.0
 10
568.6467717762412
 20
808.2605697306606
 30
0.0
 10
558.5560870999443
 20
808.9451102035797
 30
0.0
 10
545.9938909225293
 20
805.7346257208754
 30
0.0
 10
514.9528915813313
 20
797.8016043469906
 30
0.0
 10
489.5880315616308
 20
771.6168116018007
 30
0.0
 10
471.2139593005993
 20
749.2970714815126
 30
0.0
 10
469.6505749693929
 20
747.3981348500429
 30
0.0
 10
467.8563692406748
 20
745.7245074633084
 30
0.0
 10
466.9813149874213
 20
744.0060938352659
 30
0.0
 10
465.859591897424
 20
741.8053668392882
 30
0.0
 10
465.9994627741252
 20
739.470970138483
 30
0.0
 10
465.570203876663
 20
736.2460162547407
 30
0.0
 10
459.6432616038392
 20
691.6740598856753
 30
0.0
 10
455.4361109972521
 20
646.4981782780457
 30
0.0
 10
451.4604708072738
 20
600.0910195439877
 30
0.0
 10
447.54684233603
 20
554.4042302758955
 30
0.0
 10
441.8210936395448
 20
507.6177665289115
 30
0.0
 10
445.1111598279583
 20
458.6447006774395
 30
0.0
 10
380.2627494709066
 20
448.9477904151068
 30
0.0
 10
317.5082681497896
 20
435.2800630964751
 30
0.0
 10
261.6901420786747
 20
417.7276461086757
 30
0.0
 10
272.159787258349
 20
506.0598943504816
 30
0.0
 10
284.2176214567234
 20
598.3650267058775
 30
0.0
 10
290.9665635123278
 20
691.0963173727989
 30
0.0
 10
292.6443250136445
 20
714.1467622455085
 30
0.0
 10
295.1819823480795
 20
738.1604558158939
 30
0.0
 10
295.5526746222924
 20
762.3484712178331
 30
0.0
 10
295.9247449346994
 20
786.6560314331103
 30
0.0
 10
292.6994465414085
 20
811.2233518479754
 30
0.0
 10
266.2755641695422
 20
807.1457368316337
 30
0.0
 10
246.1279567527041
 20
804.0365381561958
 30
0.0
 10
230.5829969041598
 20
792.2984088188525
 30
0.0
 10
216.892876464874
 20
781.0432818685413
 30
0.0
 10
202.7390461732736
 20
769.4067828480129
 30
0.0
 10
191.0711967838294
 20
756.9024642747501
 30
0.0
 10
179.5032551634575
 20
742.9481050117456
 30
0.0
 10
173.3854546007509
 20
697.0225706265256
 30
0.0
 10
170.1498209210042
 20
650.2130247397905
 30
0.0
 10
166.0997666685445
 20
602.9125527464073
 30
0.0
 10
162.0641818171229
 20
555.7953598328394
 30
0.0
 10
157.7929524345101
 20
507.9591754914998
 30
0.0
 10
157.9865668007811
 20
458.6447006774395
 30
0.0
 10
94.12018091179982
 20
448.5536714915942
 30
0.0
 10
32.99522975520605
 20
435.7248249236209
 30
0.0
 10
-22.61309000085715
 20
417.3748683309861
 30
0.0
 10
-13.88459607942816
 20
491.4754271232249
 30
0.0
 10
-4.673099770967142
 20
571.3795937699156
 30
0.0
 10
2.077909341928439
 20
649.826140516797
 30
0.0
 10
5.412761771650282
 20
688.5724404203048
 30
0.0
 10
9.840742998841899
 20
730.9374686215191
 30
0.0
 10
9.838331432002223
 20
771.1665376218785
 30
0.0
 10
9.836953393808123
 20
794.4774317132731
 30
0.0
 10
6.846266003062739
 20
809.4157102468648
 30
0.0
 10
-17.67489013230003
 20
807.4981700997748
 30
0.0
 10
-36.53851046178551
 20
806.0229802129908
 30
0.0
 10
-52.32600503249142
 20
800.3823253749913
 30
0.0
 10
-67.76313339234741
 20
794.0943370953132
 30
0.0
 10
-65.26371661779865
 20
823.4592974829372
 30
0.0
 10
-63.04989825897711
 20
853.1081337385459
 30
0.0
 10
-60.7082668576528
 20
882.6305349898458
 30
0.0
 10
-60.01442462692348
 20
884.0578380493849
 30
0.0
 10
-57.57598604246365
 20
884.6121539129616
 30
0.0
 10
-55.76972247954716
 20
885.4524127018141
 30
0.0
 10
-10.54319796828434
 20
906.4922998493319
 30
0.0
 10
39.5140394323958
 20
928.6756141884041
 30
0.0
 10
95.90542939225628
 20
939.7733002750393
 30
0.0
 10
122.5689181551217
 20
945.0208697181719
 30
0.0
 10
165.1937065559238
 20
952.3747705409862
 30
0.0
 10
183.0310329403534
 20
935.8930892300025
 30
0.0
 10
202.1154838904434
 20
918.2586789696542
 30
0.0
 10
189.9735893622288
 20
876.9847125086185
 30
0.0
 10
189.0275661419792
 20
848.0621023813005
 30
0.0
 10
190.8431314627059
 20
847.4240706974322
 30
0.0
 10
191.8980197002894
 20
849.7033458704735
 30
0.0
 10
192.9074326774676
 20
850.5315468251275
 30
0.0
 10
234.9513779794566
 20
885.0045502887316
 30
0.0
 10
280.903439599913
 20
921.1628944637197
 30
0.0
 10
341.0554957914723
 20
937.3042003407608
 30
0.0
 10
371.374403118962
 20
945.4397933291783
 30
0.0
 10
417.0901311891303
 20
951.8059852763714
 30
0.0
 10
443.7007377362971
 20
935.5403114523128
 30
0.0
 10
468.355908086036
 20
920.470085761636
 30
0.0
 10
479.6565102967526
 20
890.1914860513237
 30
0.0
 10
474.7417370774951
 20
847.7093246036109
 30
0.0
 10
476.4884004885168
 20
847.5742768605891
 30
0.0
 10
477.7424152451478
 20
849.2809771639819
 30
0.0
 10
478.9743813906731
 20
850.1784245378894
 30
0.0
 10
501.4522513937342
 20
866.5533078888304
 30
0.0
 10
524.7218043393057
 20
883.2623655018407
 30
0.0
 10
549.1688909217356
 20
898.5031234190375
 30
0.0
 10
575.2145018093214
 20
914.7415809887625
 30
0.0
 10
603.6420517154089
 20
929.5265527732607
 30
0.0
 10
636.2939777055099
 20
938.0094113865914
 30
0.0
 10
653.683441676857
 20
942.5269650963995
 30
0.0
 10
672.6087292155285
 20
944.4824012938274
 30
0.0
 10
692.3780651480861
 20
945.4163666798786
 30
0.0
 10
733.4449813704582
 20
947.3566444571713
 30
0.0
 10
756.5202309306617
 20
925.2852957213697
 30
0.0
 10
763.9836857899069
 20
891.0958236162018
 30
0.0
 10
767.8153209886018
 20
873.537894475626
 30
0.0
 10
765.8867565359589
 20
853.8856917895669
 30
0.0
 10
762.9253524568381
 20
833.9530583310083
 30
0.0
 10
815.2935599090239
 20
834.1459836781823
 30
0.0
 10
850.3212237457531
 20
817.5096175799108
 30
0.0
 10
877.5636608049147
 20
793.035659252696
 30
0.0
 10
904.47123458291
 20
768.8624577613434
 30
0.0
 10
925.167990220097
 20
735.3289318365671
 30
0.0
 10
930.1206594896921
 20
690.3904173078712
 30
0.0
 10
932.8016327963135
 20
666.0687322011044
 30
0.0
 10
931.1803708609549
 20
639.8984088569525
 30
0.0
 10
931.1789928227608
 20
613.4941635293521
 30
0.0
 10
931.1624563644317
 20
250.8441202172369
 30
0.0
 10
931.1955292810901
 20
-112.0737792688566
 30
0.0
 10
931.1789928227608
 20
-473.9838160707402
 30
0.0
 10
931.1783038036638
 20
-487.3817924128768
 30
0.0
 10
931.3994789338168
 20
-499.9019584253717
 30
0.0
 10
930.1206594896921
 20
-511.7255261307492
 30
0.0
 10
924.0841631804374
 20
-567.5512314119317
 30
0.0
 10
892.8247447854744
 20
-607.1553600912667
 30
0.0
 10
854.63586133148
 20
-630.5971678111007
 30
0.0
 10
838.6347708406886
 20
-640.418446020451
 30
0.0
 10
820.4384655066959
 20
-648.2594833448796
 30
0.0
 10
798.5510848698067
 20
-652.1138561737771
 30
0.0
 10
777.1046764550294
 20
-655.890369844708
 30
0.0
 10
750.9198837098395
 20
-654.2291448017205
 30
0.0
 10
723.0662867115946
 20
-654.2298338208176
 30
0.0
 10
310.6456379431719
 20
-654.2429251836616
 30
0.0
 10
-107.9105536297064
 20
-654.2174314770707
 30
0.0
 10
-519.9674003148866
 20
-654.2298338208176
 30
0.0
 10
-548.2199393703235
 20
-654.2312118590116
 30
0.0
 10
-573.039440774709
 20
-655.2674965809748
 30
0.0
 10
-594.3945541591271
 20
-650.7027450630188
 30
0.0
 10
-615.8044445617608
 20
-646.1255912013158
 30
0.0
 10
-633.5973292144306
 20
-638.1357257519244
 30
0.0
 10
-649.0678750004935
 20
-627.774945589584
 30
0.0
 10
-679.7667763600062
 20
-607.2187498481953
 30
0.0
 10
-703.1934256597051
 20
-579.2376843169961
 30
0.0
 10
-715.0293957088295
 20
-538.5331921396723
 30
0.0
 10
-717.9742633296211
 20
-528.4059894512319
 30
0.0
 10
-720.2084077518056
 20
-517.3630803828121
 30
0.0
 10
-721.0259289104554
 20
-505.3769041705308
 30
0.0
 10
-721.8475841836874
 20
-493.327338201321
 30
0.0
 10
-721.3787066881449
 20
-480.2897188469415
 30
0.0
 10
-721.3787066881449
 20
-466.9289495360455
 30
0.0
 10
-721.3787066881449
 20
-105.4109646003834
 30
0.0
 10
-721.3787066881449
 20
257.3591402893929
 30
0.0
 10
-721.3787066881449
 20
620.5490300640467
 30
0.0
 10
-721.3787066881449
 20
646.7258990896206
 30
0.0
 10
-722.9775755028494
 20
672.9206826117178
 30
0.0
 10
-719.6151623092455
 20
696.3866059999485
 30
0.0
 10
-713.353012245707
 20
740.0869532112456
 30
0.0
 10
-691.6344412875949
 20
772.6282916362701
 30
0.0
 10
-664.2359414029514
 20
796.2099702328052
 30
0.0
 10
-636.6617416485603
 20
819.9428885211428
 30
0.0
 10
-599.5949257941118
 20
835.4275591986952
 30
0.0
 10
-546.7757553429068
 20
833.9527138214597
 30
0.0
 10
-544.2456772185393
 20
857.1719683729466
 30
0.0
 10
-542.3846366374073
 20
881.060949486766
 30
0.0
 10
-540.4264443635914
 20
904.8520898888044
 30
0.0
 10
-471.0491114816301
 20
933.1511377332921
 30
0.0
 10
-387.1031588116444
 20
943.4964149659488
 30
0.0
 10
-294.2182168860809
 20
947.8854666141572
 30
0.0
 10
-234.8964287064669
 20
950.6887408105049
 30
0.0
 10
-178.2235744454615
 20
942.9293522490767
 30
0.0
 10
-146.4232760593143
 20
917.5503673378868
 30
0.0
 10
-129.1468112198834
 20
903.7627506963684
 30
0.0
 10
-118.8880058839065
 20
886.7832530877661
 30
0.0
 10
-117.4989433842537
 20
857.5857243407252
 30
0.0
 10
-116.1915296476014
 20
830.1024751071445
 30
0.0
 10
-120.2588093774874
 20
802.446626589753
 30
0.0
 10
-122.790265540049
 20
774.6932818701288
 30
0.0
 10
-127.7122734598254
 20
720.7293061891753
 30
0.0
 10
-135.0875338746483
 20
668.3104558333564
 30
0.0
 10
-138.6631984787891
 20
612.4358301962834
 30
0.0
 10
-140.3502617379159
 20
586.0687918999238
 30
0.0
 10
-143.502868616468
 20
548.4362913667971
 30
0.0
 10
-118.5572767173225
 20
545.7687539325683
 30
0.0
 10
-104.774827719032
 20
544.295286593527
 30
0.0
 10
-91.25627303491163
 20
548.3115789102311
 30
0.0
 10
-80.46175535097831
 20
552.1180649118837
 30
0.0
 10
-70.87956676830441
 20
555.4970145638167
 30
0.0
 10
-62.43529322440854
 20
560.1892346147271
 30
0.0
 10
-54.35930038788587
 20
565.1691201386557
 30
0.0
 10
-53.56520587853579
 20
565.6593572262067
 30
0.0
 10
-52.61091442912158
 20
566.759376214647
 30
0.0
 10
-51.53673365682068
 20
566.2281424908215
 30
0.0
  0
SPLINE
  5
3D
330
1F
100
AcDbEntity
  8
Layer 1
 62
     7
420
 16777215
370
     9
100
AcDbSpline
210
0.0
220
0.0
230
1.0
 70
    11
 71
     3
 72
    32
 73
    28
 74
     0
 42
0.0000000001
 43
0.0000000001
 40
0.0
 40
0.0
 40
0.0
 40
0.0
 40
1.0
 40
1.0
 40
1.0
 40
2.0
 40
2.0
 40
2.0
 40
3.0
 40
3.0
 40
3.0
 40
4.0
 40
4.0
 40
4.0
 40
5.0
 40
5.0
 40
5.0
 40
6.0
 40
6.0
 40
6.0
 40
7.0
 40
7.0
 40
7.0
 40
8.0
 40
8.0
 40
8.0
 40
9.0
 40
9.0
 40
9.0
 40
9.0
 10
-312.5595607400025
 20
670.9900511017838
 30
0.0
 10
-346.7400755969088
 20
669.2816282506484
 30
0.0
 10
-378.3123086619324
 20
664.1046832649635
 30
0.0
 10
-401.8013141899143
 20
652.2952404510755
 30
0.0
 10
-426.20499256923
 20
640.0258773899068
 30
0.0
 10
-440.5620834944602
 20
618.7021143744043
 30
0.0
 10
-439.5437132690203
 20
582.1014199391101
 30
0.0
 10
-438.5921778959943
 20
547.9074692098113
 30
0.0
 10
-416.3816473025886
 20
529.4369342751929
 30
0.0
 10
-379.5790702718587
 20
538.3624876583782
 30
0.0
 10
-359.3570487925392
 20
543.2669255911799
 30
0.0
 10
-342.9115409841506
 20
555.8491033224093
 30
0.0
 10
-329.1380492341218
 20
568.6975869346486
 30
0.0
 10
-325.528967203774
 20
572.0641342428347
 30
0.0
 10
-317.4099106736857
 20
578.6776840458688
 30
0.0
 10
-316.0866494978013
 20
582.8069754944893
 30
0.0
 10
-315.130980010193
 20
585.7900836751671
 30
0.0
 10
-315.3738592419031
 20
590.0682032487504
 30
0.0
 10
-315.0283161647325
 20
593.7417085646722
 30
0.0
 10
-313.9730834176005
 20
604.9751314134264
 30
0.0
 10
-312.8372354361136
 20
616.6953462542464
 30
0.0
 10
-311.8536606750748
 20
627.2511188210518
 30
0.0
 10
-310.4552964176119
 20
642.2617443598339
 30
0.0
 10
-308.4337143868673
 20
656.6684446600517
 30
0.0
 10
-308.6790051854171
 20
671.3428288794734
 30
0.0
 10
-310.7843030364533
 20
671.6256712188124
 30
0.0
 10
-311.5577269728918
 20
671.0400049863199
 30
0.0
 10
-312.5595607400025
 20
670.9900511017838
 30
0.0
  0
SPLINE
  5
3E
330
1F
100
AcDbEntity
  8
Layer 1
 62
     7
420
 16777215
370
     9
100
AcDbSpline
210
0.0
220
0.0
230
1.0
 70
    11
 71
     3
 72
    47
 73
    43
 74
     0
 42
0.0000000001
 43
0.0000000001
 40
0.0
 40
0.0
 40
0.0
 40
0.0
 40
1.0
 40
1.0
 40
1.0
 40
2.0
 40
2.0
 40
2.0
 40
3.0
 40
3.0
 40
3.0
 40
4.0
 40
4.0
 40
4.0
 40
5.0
 40
5.0
 40
5.0
 40
6.0
 40
6.0
 40
6.0
 40
7.0
 40
7.0
 40
7.0
 40
8.0
 40
8.0
 40
8.0
 40
9.0
 40
9.0
 40
9.0
 40
10.0
 40
10.0
 40
10.0
 40
11.0
 40
11.0
 40
11.0
 40
12.0
 40
12.0
 40
12.0
 40
13.0
 40
13.0
 40
13.0
 40
14.0
 40
14.0
 40
14.0
 40
14.0
 10
-248.3622734296629
 20
177.1631740551016
 30
0.0
 10
-251.7625826736045
 20
178.5477579306235
 30
0.0
 10
-252.2442070224424
 20
186.9307087748819
 30
0.0
 10
-251.8897066970102
 20
194.4468735950515
 30
0.0
 10
-249.9787122313421
 20
234.9236449608003
 30
0.0
 10
-244.9144218680249
 20
272.2836384410437
 30
0.0
 10
-241.3077514045168
 20
310.4962930538863
 30
0.0
 10
-240.6817775548469
 20
317.1315469584775
 30
0.0
 10
-239.317519742688
 20
323.7264932458913
 30
0.0
 10
-239.5438625160689
 20
329.8966592599738
 30
0.0
 10
-239.9224785098979
 20
340.2009398563561
 30
0.0
 10
-244.2788017509963
 20
343.2853338443002
 30
0.0
 10
-255.0643621866679
 20
342.5952812186047
 30
0.0
 10
-273.3123439529393
 20
341.4260158109109
 30
0.0
 10
-294.8093952713497
 20
334.9640502092278
 30
0.0
 10
-310.4435830929621
 20
329.8966592599738
 30
0.0
 10
-311.1157212221343
 20
321.9856864971946
 30
0.0
 10
-311.9680378451851
 20
314.2552367378424
 30
0.0
 10
-312.9123385176921
 20
306.6160820088494
 30
0.0
 10
-308.2425115874359
 20
306.6147039706553
 30
0.0
 10
-296.6886948585536
 20
313.3367742814748
 30
0.0
 10
-291.0432168868746
 20
308.732748674987
 30
0.0
 10
-287.9984414970108
 20
306.2495238492189
 30
0.0
 10
-289.0729667788602
 20
296.8178859392504
 30
0.0
 10
-289.6324502856648
 20
289.3320379593511
 30
0.0
 10
-292.4539834880844
 20
251.5706908550761
 30
0.0
 10
-296.0727117857909
 20
214.3119831820991
 30
0.0
 10
-298.4508611992588
 20
177.1631740551016
 30
0.0
 10
-299.4389145844285
 20
161.7257011856971
 30
0.0
 10
-301.8491033859092
 20
147.3784287825999
 30
0.0
 10
-287.5157836195273
 20
145.7695691909882
 30
0.0
 10
-277.2187377236641
 20
144.6140841652354
 30
0.0
 10
-266.4924329303387
 20
147.3384656749709
 30
0.0
 10
-257.1806843432569
 20
149.6502970003478
 30
0.0
 10
-247.6381143586634
 20
152.0188001464571
 30
0.0
 10
-239.2572305716961
 20
154.4754977369888
 30
0.0
 10
-231.4310071578541
 20
158.4683634043933
 30
0.0
 10
-231.2425604348109
 20
166.5105943051606
 30
0.0
 10
-230.5707668151872
 20
174.0687892902502
 30
0.0
 10
-230.0198960470957
 20
181.7485961459691
 30
0.0
 10
-234.4416761024139
 20
181.0981621183539
 30
0.0
 10
-241.6526054625903
 20
174.431557844847
 30
0.0
 10
-248.3622734296629
 20
177.1631740551016
 30
0.0
  0
SPLINE
  5
3F
330
1F
100
AcDbEntity
  8
Layer 1
 62
     7
420
 16777215
370
     9
100
AcDbSpline
210
0.0
220
0.0
230
1.0
 70
    11
 71
     3
 72
    47
 73
    43
 74
     0
 42
0.0000000001
 43
0.0000000001
 40
0.0
 40
0.0
 40
0.0
 40
0.0
 40
1.0
 40
1.0
 40
1.0
 40
2.0
 40
2.0
 40
2.0
 40
3.0
 40
3.0
 40
3.0
 40
4.0
 40
4.0
 40
4.0
 40
5.0
 40
5.0
 40
5.0
 40
6.0
 40
6.0
 40
6.0
 40
7.0
 40
7.0
 40
7.0
 40
8.0
 40
8.0
 40
8.0
 40
9.0
 40
9.0
 40
9.0
 40
10.0
 40
10.0
 40
10.0
 40
11.0
 40
11.0
 40
11.0
 40
12.0
 40
12.0
 40
12.0
 40
13.0
 40
13.0
 40
13.0
 40
14.0
 40
14.0
 40
14.0
 40
14.0
 10
735.0586640957492
 20
177.1631740551016
 30
0.0
 10
731.6583548518076
 20
178.5477579306235
 30
0.0
 10
731.1767305029697
 20
186.9307087748819
 30
0.0
 10
731.5315753379505
 20
194.4468735950515
 30
0.0
 10
733.441536274973
 20
234.9233004512518
 30
0.0
 10
738.5051376191932
 20
272.2846719696893
 30
0.0
 10
742.1135306304438
 20
310.4962930538863
 30
0.0
 10
742.7405380087594
 20
317.1315469584775
 30
0.0
 10
744.1041068018212
 20
323.7264932458913
 30
0.0
 10
743.8774195188918
 20
329.8966592599738
 30
0.0
 10
743.4998370537085
 20
340.2009398563561
 30
0.0
 10
739.1417912648674
 20
343.2853338443002
 30
0.0
 10
728.3572643578412
 20
342.5952812186047
 30
0.0
 10
710.1085935724728
 20
341.4260158109109
 30
0.0
 10
688.611886763611
 20
334.9640502092278
 30
0.0
 10
672.9780434515471
 20
329.8966592599738
 30
0.0
 10
672.3055608128265
 20
321.9856864971946
 30
0.0
 10
671.4532441897757
 20
314.2552367378424
 30
0.0
 10
670.5092880268171
 20
306.6160820088494
 30
0.0
 10
675.1787704475248
 20
306.6147039706553
 30
0.0
 10
686.7329316859557
 20
313.3367742814748
 30
0.0
 10
692.3787541671832
 20
308.732748674987
 30
0.0
 10
695.424218576144
 20
306.2488348301218
 30
0.0
 10
694.3479707465519
 20
296.8178859392504
 30
0.0
 10
693.7891762588443
 20
289.3320379593511
 30
0.0
 10
690.9710881519101
 20
251.5703463455276
 30
0.0
 10
687.3496037778154
 20
214.3119831820991
 30
0.0
 10
684.9711098547989
 20
177.1631740551016
 30
0.0
 10
683.9830564696292
 20
161.7257011856971
 30
0.0
 10
681.5728676681484
 20
147.3784287825999
 30
0.0
 10
695.9058429249819
 20
145.7695691909882
 30
0.0
 10
706.2025443112966
 20
144.6140841652354
 30
0.0
 10
716.9291936141705
 20
147.3384656749709
 30
0.0
 10
726.2405976917038
 20
149.6502970003478
 30
0.0
 10
735.7835121858458
 20
152.0188001464571
 30
0.0
 10
744.1647404823616
 20
154.4754977369888
 30
0.0
 10
751.9899303675581
 20
158.4683634043933
 30
0.0
 10
752.1787216001497
 20
166.5105943051606
 30
0.0
 10
752.8505152197736
 20
174.0687892902502
 30
0.0
 10
753.4010414783164
 20
181.7485961459691
 30
0.0
 10
748.9796059325467
 20
181.0981621183539
 30
0.0
 10
741.7683320628219
 20
174.431557844847
 30
0.0
 10
735.0586640957492
 20
177.1631740551016
 30
0.0
  0
SPLINE
  5
40
330
1F
100
AcDbEntity
  8
Layer 1
 62
     7
420
 16777215
370
     9
100
AcDbSpline
210
0.0
220
0.0
230
1.0
 70
    11
 71
     3
 72
    53
 73
    49
 74
     0
 42
0.0000000001
 43
0.0000000001
 40
0.0
 40
0.0
 40
0.0
 40
0.0
 40
1.0
 40
1.0
 40
1.0
 40
2.0
 40
2.0
 40
2.0
 40
3.0
 40
3.0
 40
3.0
 40
4.0
 40
4.0
 40
4.0
 40
5.0
 40
5.0
 40
5.0
 40
6.0
 40
6.0
 40
6.0
 40
7.0
 40
7.0
 40
7.0
 40
8.0
 40
8.0
 40
8.0
 40
9.0
 40
9.0
 40
9.0
 40
10.0
 40
10.0
 40
10.0
 40
11.0
 40
11.0
 40
11.0
 40
12.0
 40
12.0
 40
12.0
 40
13.0
 40
13.0
 40
13.0
 40
14.0
 40
14.0
 40
14.0
 40
15.0
 40
15.0
 40
15.0
 40
16.0
 40
16.0
 40
16.0
 40
16.0
 10
-424.0235581079698
 20
177.5156073232426
 30
0.0
 10
-428.5848645304406
 20
179.4100653305815
 30
0.0
 10
-428.0677556981046
 20
189.8928018730997
 30
0.0
 10
-427.5513358848656
 20
196.5631957516404
 30
0.0
 10
-426.9301851688751
 20
204.5816554935595
 30
0.0
 10
-426.0475517055541
 20
211.6985337469886
 30
0.0
 10
-425.4346692187282
 20
217.7271063366273
 30
0.0
 10
-423.8240870793738
 20
233.5793687024559
 30
0.0
 10
-417.9457206528921
 20
261.9542086476191
 30
0.0
 10
-427.1985581071761
 20
272.0479939098526
 30
0.0
 10
-434.6502996417715
 20
280.1770412168481
 30
0.0
 10
-456.0302177136834
 20
284.3266587288315
 30
0.0
 10
-473.0534680349485
 20
282.2771714246564
 30
0.0
 10
-494.517101927152
 20
279.6930053011705
 30
0.0
 10
-516.9040214094025
 20
279.2906181484933
 30
0.0
 10
-534.429566652417
 20
270.6372273086428
 30
0.0
 10
-535.3631875289196
 20
260.4011596028685
 30
0.0
 10
-536.0077648942099
 20
249.8757038763332
 30
0.0
 10
-537.6042221420747
 20
240.3017835228239
 30
0.0
 10
-529.5771496614425
 20
239.6282673554575
 30
0.0
 10
-520.4262870335219
 20
240.0785413353797
 30
0.0
 10
-511.8545449566718
 20
239.9490057451343
 30
0.0
 10
-508.6729992760436
 20
246.3375908129816
 30
0.0
 10
-506.5432412470622
 20
251.1424654862595
 30
0.0
 10
-500.5670341087992
 20
255.1170721475923
 30
0.0
 10
-495.1434202863704
 20
258.7240871206488
 30
0.0
 10
-481.949049087412
 20
262.0003729271214
 30
0.0
 10
-474.4645791457068
 20
257.5858275723223
 30
0.0
 10
-466.7051905842786
 20
253.0097072392649
 30
0.0
 10
-469.1870373718526
 20
236.8160359108481
 30
0.0
 10
-470.2315903229803
 20
224.7819728713219
 30
0.0
 10
-471.5007634997464
 20
210.1668442942465
 30
0.0
 10
-472.8481403440276
 20
195.2430351616927
 30
0.0
 10
-474.1118013680172
 20
180.6902628129004
 30
0.0
 10
-474.7918632168056
 20
172.8557711698937
 30
0.0
 10
-476.2398368492561
 20
165.0354044183766
 30
0.0
 10
-475.522567969227
 20
158.1155856267038
 30
0.0
 10
-474.6788640848893
 20
149.9744804855099
 30
0.0
 10
-469.3534354837901
 20
146.401399702983
 30
0.0
 10
-461.7659571870759
 20
145.7695691909882
 30
0.0
 10
-440.7536308034401
 20
144.0201497035783
 30
0.0
 10
-420.8030828483583
 20
151.7452595649283
 30
0.0
 10
-406.3870807903303
 20
158.1155856267038
 30
0.0
 10
-405.9560993451256
 20
166.1498928078549
 30
0.0
 10
-405.2660467194301
 20
173.9254733180638
 30
0.0
 10
-404.975969679572
 20
182.1013739236587
 30
0.0
 10
-409.5793062669628
 20
181.3944403300854
 30
0.0
 10
-416.7668089778396
 20
174.5014932831976
 30
0.0
 10
-424.0235581079698
 20
177.5156073232426
 30
0.0
  0
SPLINE
  5
41
330
1F
100
AcDbEntity
  8
Layer 1
 62
     7
420
 16777215
370
     9
100
AcDbSpline
210
0.0
220
0.0
230
1.0
 70
    11
 71
     3
 72
    53
 73
    49
 74
     0
 42
0.0000000001
 43
0.0000000001
 40
0.0
 40
0.0
 40
0.0
 40
0.0
 40
1.0
 40
1.0
 40
1.0
 40
2.0
 40
2.0
 40
2.0
 40
3.0
 40
3.0
 40
3.0
 40
4.0
 40
4.0
 40
4.0
 40
5.0
 40
5.0
 40
5.0
 40
6.0
 40
6.0
 40
6.0
 40
7.0
 40
7.0
 40
7.0
 40
8.0
 40
8.0
 40
8.0
 40
9.0
 40
9.0
 40
9.0
 40
10.0
 40
10.0
 40
10.0
 40
11.0
 40
11.0
 40
11.0
 40
12.0
 40
12.0
 40
12.0
 40
13.0
 40
13.0
 40
13.0
 40
14.0
 40
14.0
 40
14.0
 40
15.0
 40
15.0
 40
15.0
 40
16.0
 40
16.0
 40
16.0
 40
16.0
 10
83.20749645272244
 20
177.5156073232426
 30
0.0
 10
78.64653453980017
 20
179.4100653305815
 30
0.0
 10
79.1639878816847
 20
189.8928018730997
 30
0.0
 10
79.68006318537513
 20
196.5631957516404
 30
0.0
 10
80.30121390136567
 20
204.5816554935595
 30
0.0
 10
81.18384736468668
 20
211.6985337469886
 30
0.0
 10
81.79672985151262
 20
217.7271063366273
 30
0.0
 10
83.40765650041546
 20
233.5790241929073
 30
0.0
 10
89.28567841734872
 20
261.9548976667161
 30
0.0
 10
80.03284096306471
 20
272.0479939098526
 30
0.0
 10
72.58144393801784
 20
280.1766967072996
 30
0.0
 10
51.20083684700882
 20
284.3273477479286
 30
0.0
 10
34.1775865257438
 20
282.2771714246564
 30
0.0
 10
12.71395263354026
 20
279.6930053011705
 30
0.0
 10
-9.672966848710232
 20
279.2913071675904
 30
0.0
 10
-27.19816758217615
 20
270.6372273086428
 30
0.0
 10
-28.13178845867886
 20
260.4011596028685
 30
0.0
 10
-28.7763658239691
 20
249.8757038763332
 30
0.0
 10
-30.37282307183388
 20
240.3017835228239
 30
0.0
 10
-22.34609510075028
 20
239.6282673554575
 30
0.0
 10
-13.19488796328114
 20
240.0785413353797
 30
0.0
 10
-4.623145886431019
 20
239.9490057451343
 30
0.0
 10
-1.441944715351319
 20
246.3375908129816
 30
0.0
 10
0.688157823178655
 20
251.1424654862595
 30
0.0
 10
6.664020451893023
 20
255.1170721475923
 30
0.0
 10
12.08797878387037
 20
258.7237426111003
 30
0.0
 10
25.28166096373167
 20
262.00071743667
 30
0.0
 10
32.76647541498546
 20
257.5858275723223
 30
0.0
 10
40.52586397641367
 20
253.0093627297164
 30
0.0
 10
38.04401718883969
 20
236.8160359108481
 30
0.0
 10
36.99946423771194
 20
224.7819728713219
 30
0.0
 10
35.73063557049443
 20
210.1668442942465
 30
0.0
 10
34.38291421666469
 20
195.2430351616927
 30
0.0
 10
33.11925319267505
 20
180.6902628129004
 30
0.0
 10
32.43850232478968
 20
172.8554266603452
 30
0.0
 10
30.99121771143622
 20
165.0357489279251
 30
0.0
 10
31.70848659146524
 20
158.1155856267038
 30
0.0
 10
32.5518459662544
 20
149.9744804855099
 30
0.0
 10
37.87761907690212
 20
146.401399702983
 30
0.0
 10
45.46440835451931
 20
145.7695691909882
 30
0.0
 10
66.47707924770366
 20
144.0201497035783
 30
0.0
 10
86.42797171233399
 20
151.7452595649283
 30
0.0
 10
100.8436292608134
 20
158.1155856267038
 30
0.0
 10
101.2749552155667
 20
166.1498928078549
 30
0.0
 10
101.9650078412622
 20
173.9254733180638
 30
0.0
 10
102.2547403715717
 20
182.1013739236587
 30
0.0
 10
97.65174829372943
 20
181.3944403300854
 30
0.0
 10
90.46459009240122
 20
174.5014932831976
 30
0.0
 10
83.20749645272244
 20
177.5156073232426
 30
0.0
  0
SPLINE
  5
42
330
1F
100
AcDbEntity
  8
Layer 1
 62
     7
420
 16777215
370
     9
100
AcDbSpline
210
0.0
220
0.0
230
1.0
 70
    11
 71
     3
 72
    56
 73
    52
 74
     0
 42
0.0000000001
 43
0.0000000001
 40
0.0
 40
0.0
 40
0.0
 40
0.0
 40
1.0
 40
1.0
 40
1.0
 40
2.0
 40
2.0
 40
2.0
 40
3.0
 40
3.0
 40
3.0
 40
4.0
 40
4.0
 40
4.0
 40
5.0
 40
5.0
 40
5.0
 40
6.0
 40
6.0
 40
6.0
 40
7.0
 40
7.0
 40
7.0
 40
8.0
 40
8.0
 40
8.0
 40
9.0
 40
9.0
 40
9.0
 40
10.0
 40
10.0
 40
10.0
 40
11.0
 40
11.0
 40
11.0
 40
12.0
 40
12.0
 40
12.0
 40
13.0
 40
13.0
 40
13.0
 40
14.0
 40
14.0
 40
14.0
 40
15.0
 40
15.0
 40
15.0
 40
16.0
 40
16.0
 40
16.0
 40
17.0
 40
17.0
 40
17.0
 40
17.0
 10
-139.0149427278331
 20
256.5281832583506
 30
0.0
 10
-139.9682006486017
 20
263.30399705874
 30
0.0
 10
-139.993349845644
 20
272.5988646779441
 30
0.0
 10
-143.6007093282491
 20
277.3393160656478
 30
0.0
 10
-146.597597890868
 20
281.278093733934
 30
0.0
 10
-153.6655557884065
 20
281.9967406521571
 30
0.0
 10
-159.8264200446788
 20
281.5723048883743
 30
0.0
 10
-177.926607214633
 20
280.3238022845197
 30
0.0
 10
-192.7818589470302
 20
271.8784952119783
 30
0.0
 10
-206.0341077501408
 20
265.6990274400857
 30
0.0
 10
-206.7186482230599
 20
258.0354125331474
 30
0.0
 10
-207.3694267602236
 20
250.3383802000022
 30
0.0
 10
-207.7979966385887
 20
242.4191392080584
 30
0.0
 10
-203.5629407585711
 20
243.9415269029903
 30
0.0
 10
-195.2268432129121
 20
248.742956480783
 30
0.0
 10
-189.1031859878805
 20
245.9462279658572
 30
0.0
 10
-183.2248195613987
 20
243.2618095637505
 30
0.0
 10
-182.6601684113662
 20
231.2212008428023
 30
0.0
 10
-181.3431084073552
 20
223.3712062701121
 30
0.0
 10
-176.9723157652187
 20
197.3304185162056
 30
0.0
 10
-172.7916923938681
 20
168.6451754678214
 30
0.0
 10
-171.1139308925514
 20
142.595258210879
 30
0.0
 10
-157.8237860391031
 20
147.7649684960449
 30
0.0
 10
-143.0143540766596
 20
151.4155639269899
 30
0.0
 10
-125.9638875010611
 20
152.824607980457
 30
0.0
 10
-109.1139254827042
 20
174.5421454099235
 30
0.0
 10
-89.33528779233632
 20
204.2702188616929
 30
0.0
 10
-75.87598875056226
 20
232.5423949613957
 30
0.0
 10
-71.39288599560665
 20
241.9585299416805
 30
0.0
 10
-65.55723875314195
 20
253.5357733198626
 30
0.0
 10
-64.58847790268969
 20
264.641383126114
 30
0.0
 10
-63.76096596713268
 20
274.1257309970068
 30
0.0
 10
-66.16185301080328
 20
279.5696708827986
 30
0.0
 10
-73.40654430673517
 20
280.5139715553055
 30
0.0
 10
-88.90223928984042
 20
282.5338310383075
 30
0.0
 10
-104.0582478581
 20
274.818195189542
 30
0.0
 10
-114.67603214364
 20
272.0483384194011
 30
0.0
 10
-115.0370781504942
 20
264.7664400922285
 30
0.0
 10
-116.4319973124719
 20
258.5191039392765
 30
0.0
 10
-116.7926988097775
 20
251.2372056121039
 30
0.0
 10
-100.2331583408271
 20
256.0393242089937
 30
0.0
 10
-106.0322875711482
 20
237.7362209149583
 30
0.0
 10
-109.3850544973933
 20
229.0149616940484
 30
0.0
 10
-114.2564195135366
 20
216.3473455947847
 30
0.0
 10
-120.5933281491051
 20
204.8355590308224
 30
0.0
 10
-126.6690985468918
 20
194.0944403269104
 30
0.0
 10
-127.8741929476322
 20
191.9639932788319
 30
0.0
 10
-129.1226955514867
 20
188.9547023724662
 30
0.0
 10
-131.6072984154489
 20
188.4506849029741
 30
0.0
 10
-133.5551554028091
 20
209.8550631528314
 30
0.0
 10
-135.9260701157581
 20
234.5756903167901
 30
0.0
 10
-139.0149427278331
 20
256.5281832583506
 30
0.0
  0
SPLINE
  5
43
330
1F
100
AcDbEntity
  8
Layer 1
 62
     7
420
 16777215
370
     9
100
AcDbSpline
210
0.0
220
0.0
230
1.0
 70
    11
 71
     3
 72
    80
 73
    76
 74
     0
 42
0.0000000001
 43
0.0000000001
 40
0.0
 40
0.0
 40
0.0
 40
0.0
 40
1.0
 40
1.0
 40
1.0
 40
2.0
 40
2.0
 40
2.0
 40
3.0
 40
3.0
 40
3.0
 40
4.0
 40
4.0
 40
4.0
 40
5.0
 40
5.0
 40
5.0
 40
6.0
 40
6.0
 40
6.0
 40
7.0
 40
7.0
 40
7.0
 40
8.0
 40
8.0
 40
8.0
 40
9.0
 40
9.0
 40
9.0
 40
10.0
 40
10.0
 40
10.0
 40
11.0
 40
11.0
 40
11.0
 40
12.0
 40
12.0
 40
12.0
 40
13.0
 40
13.0
 40
13.0
 40
14.0
 40
14.0
 40
14.0
 40
15.0
 40
15.0
 40
15.0
 40
16.0
 40
16.0
 40
16.0
 40
17.0
 40
17.0
 40
17.0
 40
18.0
 40
18.0
 40
18.0
 40
19.0
 40
19.0
 40
19.0
 40
20.0
 40
20.0
 40
20.0
 40
21.0
 40
21.0
 40
21.0
 40
22.0
 40
22.0
 40
22.0
 40
23.0
 40
23.0
 40
23.0
 40
24.0
 40
24.0
 40
24.0
 40
25.0
 40
25.0
 40
25.0
 40
25.0
 10
190.085899475048
 20
279.4556382222368
 30
0.0
 10
186.8888508647361
 20
281.6635999187334
 30
0.0
 10
182.4274522113376
 20
281.5419880481041
 30
0.0
 10
177.3872775164171
 20
281.2195271106847
 30
0.0
 10
157.7936414536072
 20
279.9662013731508
 30
0.0
 10
138.0119031773026
 20
271.1715616184051
 30
0.0
 10
124.4775010539501
 20
264.9941609038036
 30
0.0
 10
123.759543154824
 20
257.1290079109782
 30
0.0
 10
122.932720238364
 20
249.3727199354867
 30
0.0
 10
122.00874562922
 20
241.7135836526793
 30
0.0
 10
127.6104708882363
 20
242.2579087393487
 30
0.0
 10
134.6267523534961
 20
247.894429462766
 30
0.0
 10
141.4087673257589
 20
244.8878946327885
 30
0.0
 10
146.5640082098868
 20
242.6020737783252
 30
0.0
 10
144.3536349465505
 20
228.0751396456722
 30
0.0
 10
143.877522750489
 20
220.5496730676925
 30
0.0
 10
142.19562713459
 20
193.9549139597578
 30
0.0
 10
138.2944010070931
 20
166.0341375995505
 30
0.0
 10
134.7066785687539
 20
144.0063693216373
 30
0.0
 10
150.8662434518668
 20
148.0708929751351
 30
0.0
 10
167.2476724842298
 20
151.9116576768658
 30
0.0
 10
185.1476996064909
 20
154.2357190912154
 30
0.0
 10
185.0264322454101
 20
173.1165648981271
 30
0.0
 10
186.9033202657742
 20
192.1662203838161
 30
0.0
 10
188.3220105866001
 20
209.9673732656505
 30
0.0
 10
188.7815863243324
 20
215.7327405602161
 30
0.0
 10
188.5225151438416
 20
223.2413261703182
 30
0.0
 10
190.085899475048
 20
227.9566283609796
 30
0.0
 10
191.450846306304
 20
232.0738619754017
 30
0.0
 10
198.3003851500777
 20
236.7137165749362
 30
0.0
 10
202.0789658782997
 20
239.2441392088522
 30
0.0
 10
206.3412380126508
 20
242.0984008183817
 30
0.0
 10
213.6434624031864
 20
246.6865789856374
 30
0.0
 10
219.3623209087011
 20
244.8875501232399
 30
0.0
 10
227.4383137452238
 20
242.3478257315138
 30
0.0
 10
222.8060383557568
 20
222.3359550767945
 30
0.0
 10
221.8317653525282
 20
213.8472398011389
 30
0.0
 10
220.0485839293629
 20
198.3157158249871
 30
0.0
 10
218.8345322803608
 20
186.1982814747178
 30
0.0
 10
217.2463432616607
 20
171.1669853630242
 30
0.0
 10
215.8324760745141
 20
157.7907131224447
 30
0.0
 10
214.8540689567032
 20
147.146918365991
 30
0.0
 10
227.1227429987749
 20
145.7695691909882
 30
0.0
 10
237.5786077965081
 20
144.5961696687121
 30
0.0
 10
247.9972655630007
 20
147.2137532184049
 30
0.0
 10
257.1047199878072
 20
149.2975192226583
 30
0.0
 10
266.5036294906658
 20
151.4472588054542
 30
0.0
 10
275.7385524484265
 20
153.7237779021073
 30
0.0
 10
281.7964083496898
 20
158.4683634043933
 30
0.0
 10
283.15101989449
 20
165.9318182636386
 30
0.0
 10
283.867599755422
 20
174.0339938258491
 30
0.0
 10
284.970719329799
 20
181.7489406555176
 30
0.0
 10
280.1062445046262
 20
180.8669962112937
 30
0.0
 10
273.8079209384925
 20
173.7191120984973
 30
0.0
 10
267.333897502611
 20
176.8107407869605
 30
0.0
 10
263.0785155592304
 20
178.8426581041609
 30
0.0
 10
264.6102050119725
 20
191.9874199281316
 30
0.0
 10
265.2179198555705
 20
197.6218735942577
 30
0.0
 10
267.0252169471326
 20
214.3925984164539
 30
0.0
 10
268.8256238477242
 20
225.1623114128935
 30
0.0
 10
270.8616752795068
 20
241.3604613654412
 30
0.0
 10
271.8138996716299
 20
248.9403604520878
 30
0.0
 10
273.5702093500103
 20
257.1972208015861
 30
0.0
 10
272.9776529265473
 20
263.9354830611863
 30
0.0
 10
272.1129339597496
 20
273.7791543911906
 30
0.0
 10
266.2101073553225
 20
280.3220797367771
 30
0.0
 10
257.4581867845938
 20
281.2191826011362
 30
0.0
 10
243.796316128287
 20
282.6189248967932
 30
0.0
 10
230.0738117914399
 20
277.8505682356589
 30
0.0
 10
219.7150986863907
 20
273.1059827333728
 30
0.0
 10
208.7369574130935
 20
268.0775213631022
 30
0.0
 10
199.7969346288702
 20
260.6264688476038
 30
0.0
 10
192.2018771220884
 20
255.1170721475923
 30
0.0
 10
192.9053656201764
 20
263.2867715813138
 30
0.0
 10
196.0507377982096
 20
275.3370265696206
 30
0.0
 10
190.085899475048
 20
279.4556382222368
 30
0.0
  0
SPLINE
  5
44
330
1F
100
AcDbEntity
  8
Layer 1
 62
     7
420
 16777215
370
     9
100
AcDbSpline
210
0.0
220
0.0
230
1.0
 70
    11
 71
     3
 72
    23
 73
    19
 74
     0
 42
0.0000000001
 43
0.0000000001
 40
0.0
 40
0.0
 40
0.0
 40
0.0
 40
1.0
 40
1.0
 40
1.0
 40
2.0
 40
2.0
 40
2.0
 40
3.0
 40
3.0
 40
3.0
 40
4.0
 40
4.0
 40
4.0
 40
5.0
 40
5.0
 40
5.0
 40
6.0
 40
6.0
 40
6.0
 40
6.0
 10
575.6237791529691
 20
251.2365165930069
 30
0.0
 10
574.0349011151718
 20
273.0784219694908
 30
0.0
 10
556.5296819355203
 20
280.5808064077194
 30
0.0
 10
532.9431802053059
 20
281.2191826011362
 30
0.0
 10
531.5892576796027
 20
272.8138386362236
 30
0.0
 10
531.3060708307152
 20
263.3377589944955
 30
0.0
 10
530.1209579837893
 20
254.7642943699027
 30
0.0
 10
536.7245170099161
 20
254.0956013362157
 30
0.0
 10
537.7105033377946
 20
245.0108845416119
 30
0.0
 10
537.1758245184839
 20
238.8913614311626
 30
0.0
 10
536.046522218419
 20
225.9581284699862
 30
0.0
 10
526.1349825073552
 20
217.7264173175302
 30
0.0
 10
512.1320473980087
 20
218.0798841143169
 30
0.0
 10
511.9349879362524
 20
210.8355373279335
 30
0.0
 10
511.1247014781216
 20
204.0766044954218
 30
0.0
 10
511.7792696203191
 20
196.91597352933
 30
0.0
 10
548.0609482136792
 20
196.9207966630094
 30
0.0
 10
578.2875269821643
 20
214.6199747184804
 30
0.0
 10
575.6237791529691
 20
251.2365165930069
 30
0.0
  0
SPLINE
  5
45
330
1F
100
AcDbEntity
  8
Layer 1
 62
     7
420
 16777215
370
     9
100
AcDbSpline
210
0.0
220
0.0
230
1.0
 70
    11
 71
     3
 72
    47
 73
    43
 74
     0
 42
0.0000000001
 43
0.0000000001
 40
0.0
 40
0.0
 40
0.0
 40
0.0
 40
1.0
 40
1.0
 40
1.0
 40
2.0
 40
2.0
 40
2.0
 40
3.0
 40
3.0
 40
3.0
 40
4.0
 40
4.0
 40
4.0
 40
5.0
 40
5.0
 40
5.0
 40
6.0
 40
6.0
 40
6.0
 40
7.0
 40
7.0
 40
7.0
 40
8.0
 40
8.0
 40
8.0
 40
9.0
 40
9.0
 40
9.0
 40
10.0
 40
10.0
 40
10.0
 40
11.0
 40
11.0
 40
11.0
 40
12.0
 40
12.0
 40
12.0
 40
13.0
 40
13.0
 40
13.0
 40
14.0
 40
14.0
 40
14.0
 40
14.0
 10
386.9110947383417
 20
280.5139715553055
 30
0.0
 10
359.8161077659487
 20
278.9423189949346
 30
0.0
 10
344.5495116326126
 20
270.5431762018954
 30
0.0
 10
331.8846516097372
 20
254.0594278336206
 30
0.0
 10
320.1451442341998
 20
238.779395827892
 30
0.0
 10
313.6311576906895
 20
216.5926363933345
 30
0.0
 10
315.6589408933075
 20
189.1558959488048
 30
0.0
 10
317.4820854241017
 20
164.4907348221586
 30
0.0
 10
332.0720648041348
 20
150.1815307241734
 30
0.0
 10
354.4596733054823
 20
146.4751247463673
 30
0.0
 10
372.4382486048071
 20
143.4985622471115
 30
0.0
 10
394.0569117938469
 20
146.7335069077611
 30
0.0
 10
408.4277831010181
 20
151.7659301378398
 30
0.0
 10
411.4546439943586
 20
152.8266750377482
 30
0.0
 10
420.1011446432386
 20
155.2630465649169
 30
0.0
 10
421.8312715959311
 20
158.8207966725344
 30
0.0
 10
423.5283256319652
 20
162.3089558513499
 30
0.0
 10
422.7600693387544
 20
168.219706175393
 30
0.0
 10
423.2423827066894
 20
172.5774074546855
 30
0.0
 10
423.7674152586415
 20
177.3188923710349
 30
0.0
 10
424.5301593990758
 20
181.6200940843693
 30
0.0
 10
425.0062715951373
 20
185.981240459147
 30
0.0
 10
414.2892685596221
 20
179.0321383558496
 30
0.0
 10
400.6466904380328
 20
170.5516913093586
 30
0.0
 10
384.4423393136117
 20
172.2246296769959
 30
0.0
 10
371.6066025546678
 20
173.5503024197201
 30
0.0
 10
364.5662054210113
 20
184.5542819091566
 30
0.0
 10
363.6305174872174
 20
197.6215290847092
 30
0.0
 10
361.9996092845001
 20
220.4022229809238
 30
0.0
 10
367.2327093265946
 20
247.1781941113825
 30
0.0
 10
381.620117092095
 20
254.4115165922131
 30
0.0
 10
396.8288356212789
 20
262.0585950408222
 30
0.0
 10
406.9960014173482
 20
249.2307820014944
 30
0.0
 10
405.6055608795014
 20
233.2476060072263
 30
0.0
 10
412.6156411728878
 20
234.2332478255563
 30
0.0
 10
420.7653590527948
 20
234.0785630382686
 30
0.0
 10
428.1805825752465
 20
234.6583726084361
 30
0.0
 10
429.400146377025
 20
249.3117417453978
 30
0.0
 10
431.3300888678619
 20
263.2554212123979
 30
0.0
 10
434.1771157768724
 20
276.280982732579
 30
0.0
 10
420.2279241570958
 20
280.5401542809934
 30
0.0
 10
403.8409829719565
 20
281.4958237686017
 30
0.0
 10
386.9110947383417
 20
280.5139715553055
 30
0.0
  0
SPLINE
  5
46
330
1F
100
AcDbEntity
  8
Layer 1
 62
     7
420
 16777215
370
     9
100
AcDbSpline
210
0.0
220
0.0
230
1.0
 70
    11
 71
     3
 72
    38
 73
    34
 74
     0
 42
0.0000000001
 43
0.0000000001
 40
0.0
 40
0.0
 40
0.0
 40
0.0
 40
1.0
 40
1.0
 40
1.0
 40
2.0
 40
2.0
 40
2.0
 40
3.0
 40
3.0
 40
3.0
 40
4.0
 40
4.0
 40
4.0
 40
5.0
 40
5.0
 40
5.0
 40
6.0
 40
6.0
 40
6.0
 40
7.0
 40
7.0
 40
7.0
 40
8.0
 40
8.0
 40
8.0
 40
9.0
 40
9.0
 40
9.0
 40
10.0
 40
10.0
 40
10.0
 40
11.0
 40
11.0
 40
11.0
 40
11.0
 10
-380.990181382617
 20
212.7889064680701
 30
0.0
 10
-384.1210841596121
 20
190.3230942992074
 30
0.0
 10
-382.7010158005921
 20
166.4251559371264
 30
0.0
 10
-369.7026705347445
 20
153.5294745167392
 30
0.0
 10
-359.2319918264246
 20
143.1416503548396
 30
0.0
 10
-339.7155259024843
 20
144.0463324292662
 30
0.0
 10
-326.3165160317021
 20
151.0603745824606
 30
0.0
 10
-322.3725707201881
 20
153.1253648163193
 30
0.0
 10
-313.607214277067
 20
158.4456257741907
 30
0.0
 10
-312.2074719814099
 20
162.3475409207846
 30
0.0
 10
-310.8862778628167
 20
166.0303479945167
 30
0.0
 10
-311.1977144946832
 20
171.2000582796826
 30
0.0
 10
-310.7963608706516
 20
175.3989406571051
 30
0.0
 10
-310.3657239349954
 20
179.9027139849723
 30
0.0
 10
-310.2937214393536
 20
184.2528360541972
 30
0.0
 10
-309.7380275375829
 20
188.8027736615667
 30
0.0
 10
-313.8066853056629
 20
186.7722343825604
 30
0.0
 10
-319.6309637330263
 20
180.6871622269636
 30
0.0
 10
-327.3745048552224
 20
183.1590182376304
 30
0.0
 10
-332.3102931569398
 20
184.7344604030351
 30
0.0
 10
-334.0280177658854
 20
191.6349866599906
 30
0.0
 10
-334.429371389917
 20
197.6211845751607
 30
0.0
 10
-335.7030231908138
 20
216.6174410808283
 30
0.0
 10
-330.0189601497001
 20
242.2989053756232
 30
0.0
 10
-319.2616494970075
 20
250.8837388153173
 30
0.0
 10
-315.4758340682665
 20
253.9054320654299
 30
0.0
 10
-309.421767772037
 20
256.2911606889654
 30
0.0
 10
-303.7418388455055
 20
254.4115165922131
 30
0.0
 10
-303.0424844619998
 20
263.000828656038
 30
0.0
 10
-302.196713520371
 20
271.4440686712883
 30
0.0
 10
-301.272738911227
 20
279.8080714903779
 30
0.0
 10
-351.0088934126818
 20
285.2475327520388
 30
0.0
 10
-375.2230915403088
 20
254.1707044177941
 30
0.0
 10
-380.990181382617
 20
212.7889064680701
 30
0.0
  0
SPLINE
  5
47
330
1F
100
AcDbEntity
  8
Layer 1
 62
     7
420
 16777215
370
     9
100
AcDbSpline
210
0.0
220
0.0
230
1.0
 70
    11
 71
     3
 72
    29
 73
    25
 74
     0
 42
0.0000000001
 43
0.0000000001
 40
0.0
 40
0.0
 40
0.0
 40
0.0
 40
1.0
 40
1.0
 40
1.0
 40
2.0
 40
2.0
 40
2.0
 40
3.0
 40
3.0
 40
3.0
 40
4.0
 40
4.0
 40
4.0
 40
5.0
 40
5.0
 40
5.0
 40
6.0
 40
6.0
 40
6.0
 40
7.0
 40
7.0
 40
7.0
 40
8.0
 40
8.0
 40
8.0
 40
8.0
 10
458.868804138755
 20
232.5420504518471
 30
0.0
 10
449.5952961115595
 20
204.1155340744052
 30
0.0
 10
449.6497286202265
 20
164.5820298525177
 30
0.0
 10
474.3889592998055
 20
151.7655856282913
 30
0.0
 10
499.2949326008707
 20
138.8635307812563
 30
0.0
 10
543.769048258155
 20
146.2436143297585
 30
0.0
 10
563.6307127497173
 20
157.4093410522275
 30
0.0
 10
564.3031953884381
 20
166.7314249257651
 30
0.0
 10
565.0748967771341
 20
175.9539455397789
 30
0.0
 10
565.7473794158549
 20
185.2753403942194
 30
0.0
 10
555.2308809375812
 20
178.1481268543345
 30
0.0
 10
528.1813692255936
 20
165.3351277255933
 30
0.0
 10
511.4258028235325
 20
173.9878295463468
 30
0.0
 10
498.3792262208913
 20
180.7264363154955
 30
0.0
 10
498.8587835124381
 20
201.2991685152134
 30
0.0
 10
501.1966253087286
 20
219.8434284932162
 30
0.0
 10
503.2312987023172
 20
235.9781886888353
 30
0.0
 10
508.1357366351189
 20
249.9873249700553
 30
0.0
 10
518.8334471359167
 20
254.7636053508056
 30
0.0
 10
519.2971569882313
 20
263.0352796108905
 30
0.0
 10
521.5454263019053
 20
273.5490220127759
 30
0.0
 10
520.9501138020541
 20
280.5132825362085
 30
0.0
 10
487.4754990100756
 20
278.4469142641556
 30
0.0
 10
467.4718965845209
 20
258.9152899200802
 30
0.0
 10
458.868804138755
 20
232.5420504518471
 30
0.0
  0
SPLINE
  5
48
330
1F
100
AcDbEntity
  8
Layer 1
 62
     7
420
 16777215
370
     9
100
AcDbSpline
210
0.0
220
0.0
230
1.0
 70
    11
 71
     3
 72
    38
 73
    34
 74
     0
 42
0.0000000001
 43
0.0000000001
 40
0.0
 40
0.0
 40
0.0
 40
0.0
 40
1.0
 40
1.0
 40
1.0
 40
2.0
 40
2.0
 40
2.0
 40
3.0
 40
3.0
 40
3.0
 40
4.0
 40
4.0
 40
4.0
 40
5.0
 40
5.0
 40
5.0
 40
6.0
 40
6.0
 40
6.0
 40
7.0
 40
7.0
 40
7.0
 40
8.0
 40
8.0
 40
8.0
 40
9.0
 40
9.0
 40
9.0
 40
10.0
 40
10.0
 40
10.0
 40
11.0
 40
11.0
 40
11.0
 40
11.0
 10
602.4314451618922
 20
212.7889064680701
 30
0.0
 10
599.2998533658001
 20
190.3230942992074
 30
0.0
 10
600.7199217248201
 20
166.4244669180293
 30
0.0
 10
613.7189560097647
 20
153.5294745167392
 30
0.0
 10
624.189290208536
 20
143.1423393739366
 30
0.0
 10
643.7064451515735
 20
144.0456434101692
 30
0.0
 10
657.1051105128071
 20
151.0603745824606
 30
0.0
 10
661.0497448434181
 20
153.1257093258679
 30
0.0
 10
669.8140677578938
 20
158.4452812646421
 30
0.0
 10
671.2141545630992
 20
162.3475409207846
 30
0.0
 10
672.5356931912411
 20
166.0300034849682
 30
0.0
 10
672.2242565593746
 20
171.2007472987797
 30
0.0
 10
672.6252656738576
 20
175.3989406571051
 30
0.0
 10
673.0552135904168
 20
179.9027139849723
 30
0.0
 10
673.1275605956071
 20
184.2528360541972
 30
0.0
 10
673.6835990069263
 20
188.8027736615667
 30
0.0
 10
669.6142522197492
 20
186.7722343825604
 30
0.0
 10
663.7899737923859
 20
180.6871622269636
 30
0.0
 10
656.0467771797383
 20
183.1590182376304
 30
0.0
 10
651.1106443684723
 20
184.7344604030351
 30
0.0
 10
649.3936087786238
 20
191.6349866599906
 30
0.0
 10
648.9919106450437
 20
197.6211845751607
 30
0.0
 10
647.7186033536954
 20
216.6174410808283
 30
0.0
 10
653.4016328661635
 20
242.2992498851717
 30
0.0
 10
664.1592880284046
 20
250.8837388153173
 30
0.0
 10
667.942002871209
 20
253.9023314794932
 30
0.0
 10
674.0019258297634
 20
256.2939167653536
 30
0.0
 10
679.6794431894551
 20
254.4115165922131
 30
0.0
 10
680.3787975729609
 20
263.000828656038
 30
0.0
 10
681.2242240050412
 20
271.4440686712883
 30
0.0
 10
682.1488876332822
 20
279.8080714903779
 30
0.0
 10
632.4120441127303
 20
285.2475327520388
 30
0.0
 10
608.1992240232975
 20
254.1707044177941
 30
0.0
 10
602.4314451618922
 20
212.7889064680701
 30
0.0
  0
SPLINE
  5
49
330
1F
100
AcDbEntity
  8
Layer 1
 62
     7
420
 16777215
370
     9
100
AcDbSpline
210
0.0
220
0.0
230
1.0
 70
    11
 71
     3
 72
    32
 73
    28
 74
     0
 42
0.0000000001
 43
0.0000000001
 40
0.0
 40
0.0
 40
0.0
 40
0.0
 40
1.0
 40
1.0
 40
1.0
 40
2.0
 40
2.0
 40
2.0
 40
3.0
 40
3.0
 40
3.0
 40
4.0
 40
4.0
 40
4.0
 40
5.0
 40
5.0
 40
5.0
 40
6.0
 40
6.0
 40
6.0
 40
7.0
 40
7.0
 40
7.0
 40
8.0
 40
8.0
 40
8.0
 40
9.0
 40
9.0
 40
9.0
 40
9.0
 10
-483.2829900593008
 20
229.0146171844998
 30
0.0
 10
-517.814560146154
 20
222.96296245511
 30
0.0
 10
-556.4330470071591
 20
215.1736015629601
 30
0.0
 10
-553.1240327935767
 20
172.2246296769959
 30
0.0
 10
-552.0953272816811
 20
158.8707505570705
 30
0.0
 10
-543.5900755476963
 20
146.6466905015328
 30
0.0
 10
-527.3747001177223
 20
145.4167914132986
 30
0.0
 10
-509.2659002090551
 20
144.043576352878
 30
0.0
 10
-499.232748627362
 20
151.7083970432361
 30
0.0
 10
-487.8684121501684
 20
158.4683634043933
 30
0.0
 10
-487.581435696247
 20
165.4712089972607
 30
0.0
 10
-486.8676119117032
 20
172.0472072595056
 30
0.0
 10
-486.45730103941
 20
178.9263739244524
 30
0.0
 10
-490.3268322884426
 20
178.0092895062789
 30
0.0
 10
-494.4147825912401
 20
173.7091213215901
 30
0.0
 10
-500.9194673769403
 20
175.0465073889641
 30
0.0
 10
-509.9380383382273
 20
176.9016913077711
 30
0.0
 10
-509.6407265978502
 20
193.7960950578878
 30
0.0
 10
-504.094122866598
 20
200.4434067966774
 30
0.0
 10
-499.2024317870918
 20
206.305925783927
 30
0.0
 10
-490.8659897318842
 20
206.6180514348906
 30
0.0
 10
-483.9882011051315
 20
208.2034843772026
 30
0.0
 10
-483.8245590695821
 20
214.8700886507096
 30
0.0
 10
-481.5497625206716
 20
223.1517536877016
 30
0.0
 10
-482.9298677720627
 20
229.0146171844998
 30
0.0
 10
-483.0476900376582
 20
229.0146171844998
 30
0.0
 10
-483.1651677937053
 20
229.0146171844998
 30
0.0
 10
-483.2829900593008
 20
229.0146171844998
 30
0.0
  0
SPLINE
  5
4A
330
1F
100
AcDbEntity
  8
Layer 1
 62
     7
420
 16777215
370
     9
100
AcDbSpline
210
0.0
220
0.0
230
1.0
 70
    11
 71
     3
 72
    32
 73
    28
 74
     0
 42
0.0000000001
 43
0.0000000001
 40
0.0
 40
0.0
 40
0.0
 40
0.0
 40
1.0
 40
1.0
 40
1.0
 40
2.0
 40
2.0
 40
2.0
 40
3.0
 40
3.0
 40
3.0
 40
4.0
 40
4.0
 40
4.0
 40
5.0
 40
5.0
 40
5.0
 40
6.0
 40
6.0
 40
6.0
 40
7.0
 40
7.0
 40
7.0
 40
8.0
 40
8.0
 40
8.0
 40
9.0
 40
9.0
 40
9.0
 40
9.0
 10
23.94806450139146
 20
229.0146171844998
 30
0.0
 10
-10.58522813320439
 20
222.96296245511
 30
0.0
 10
-49.19992538917572
 20
215.1736015629601
 30
0.0
 10
-45.89332274243292
 20
172.2246296769959
 30
0.0
 10
-44.86530624963437
 20
158.8707505570705
 30
0.0
 10
-36.35867647745547
 20
146.6466905015328
 30
0.0
 10
-20.14399006657859
 20
145.4167914132986
 30
0.0
 10
-2.035190157911341
 20
144.043576352878
 30
0.0
 10
7.997616914233235
 20
151.7083970432361
 30
0.0
 10
19.3622979009754
 20
158.4683634043933
 30
0.0
 10
19.64892984534819
 20
165.4712089972607
 30
0.0
 10
20.36275362989195
 20
172.0472072595056
 30
0.0
 10
20.77340901173373
 20
178.9263739244524
 30
0.0
 10
16.90387776270111
 20
178.0092895062789
 30
0.0
 10
12.81592745990366
 20
173.7091213215901
 30
0.0
 10
6.31124267420344
 20
175.0465073889641
 30
0.0
 10
-2.70767279663211
 20
176.9016913077711
 30
0.0
 10
-2.410016546706524
 20
193.7960950578878
 30
0.0
 10
3.136587184545714
 20
200.4434067966774
 30
0.0
 10
8.027933754503433
 20
206.305925783927
 30
0.0
 10
16.36437580971099
 20
206.6180514348906
 30
0.0
 10
23.24216443646377
 20
208.2034843772026
 30
0.0
 10
23.40615098156166
 20
214.8700886507096
 30
0.0
 10
25.6806030209236
 20
223.1517536877016
 30
0.0
 10
24.30049776953252
 20
229.0146171844998
 30
0.0
 10
24.18370903258255
 20
229.0146171844998
 30
0.0
 10
24.065886766987
 20
229.0146171844998
 30
0.0
 10
23.94806450139146
 20
229.0146171844998
 30
0.0
  0
SPLINE
  5
4B
330
1F
100
AcDbEntity
  8
Layer 1
 62
     7
420
 16777215
370
     9
100
AcDbSpline
210
0.0
220
0.0
230
1.0
 70
    11
 71
     3
 72
    80
 73
    76
 74
     0
 42
0.0000000001
 43
0.0000000001
 40
0.0
 40
0.0
 40
0.0
 40
0.0
 40
1.0
 40
1.0
 40
1.0
 40
2.0
 40
2.0
 40
2.0
 40
3.0
 40
3.0
 40
3.0
 40
4.0
 40
4.0
 40
4.0
 40
5.0
 40
5.0
 40
5.0
 40
6.0
 40
6.0
 40
6.0
 40
7.0
 40
7.0
 40
7.0
 40
8.0
 40
8.0
 40
8.0
 40
9.0
 40
9.0
 40
9.0
 40
10.0
 40
10.0
 40
10.0
 40
11.0
 40
11.0
 40
11.0
 40
12.0
 40
12.0
 40
12.0
 40
13.0
 40
13.0
 40
13.0
 40
14.0
 40
14.0
 40
14.0
 40
15.0
 40
15.0
 40
15.0
 40
16.0
 40
16.0
 40
16.0
 40
17.0
 40
17.0
 40
17.0
 40
18.0
 40
18.0
 40
18.0
 40
19.0
 40
19.0
 40
19.0
 40
20.0
 40
20.0
 40
20.0
 40
21.0
 40
21.0
 40
21.0
 40
22.0
 40
22.0
 40
22.0
 40
23.0
 40
23.0
 40
23.0
 40
24.0
 40
24.0
 40
24.0
 40
25.0
 40
25.0
 40
25.0
 40
25.0
 10
0.667831759815681
 20
100.9723035771875
 30
0.0
 10
1.410594346435546
 20
107.5186740182592
 30
0.0
 10
2.856500921594903
 20
114.1015624714746
 30
0.0
 10
2.078598361025489
 20
120.3723252737264
 30
0.0
 10
1.074697536623687
 20
128.4689886831605
 30
0.0
 10
-4.566990830021447
 20
131.2381564342043
 30
0.0
 10
-13.79433457771461
 20
130.6015027885302
 30
0.0
 10
-33.26429171260407
 20
129.2592935874769
 30
0.0
 10
-51.39651827057101
 20
122.8397026602623
 30
0.0
 10
-67.76244437325036
 20
118.2556586075889
 30
0.0
 10
-68.71535778447047
 20
110.6261501459546
 30
0.0
 10
-69.52874482853795
 20
102.8567708076191
 30
0.0
 10
-70.23154430752892
 20
94.97577037556162
 30
0.0
 10
-64.36489120569698
 20
96.10369463743241
 30
0.0
 10
-57.8884562029758
 20
98.3099337861864
 30
0.0
 10
-50.83083359189299
 20
97.09243704169911
 30
0.0
 10
-46.404574912444
 20
92.15217011585085
 30
0.0
 10
-47.9255845691818
 20
84.31388886781042
 30
0.0
 10
-48.36207816716296
 20
77.69241534516023
 30
0.0
 10
-51.63836397363555
 20
27.95901692009358
 30
0.0
 10
-56.71540119024824
 20
-21.52495659184098
 30
0.0
 10
-62.82389999514472
 20
-67.63411456642481
 30
0.0
 10
-46.89102239496128
 20
-62.87368162490658
 30
0.0
 10
-30.15853813265134
 20
-58.91182181686927
 30
0.0
 10
-12.73600124464586
 20
-55.64104816317307
 30
0.0
 10
-12.81558295035513
 20
-36.82669269912666
 30
0.0
 10
-10.56593559848699
 20
-17.80218641048001
 30
0.0
 10
-9.208912486847078
 20
0.0909505208105957
 30
0.0
 10
-8.812726506043347
 20
5.30889214277
 30
0.0
 10
-9.422163897384042
 20
11.92209743625559
 30
0.0
 10
-8.150579153778327
 20
15.96319444045365
 30
0.0
 10
-6.934460447485135
 20
19.82928059400101
 30
0.0
 10
0.4390774195950918
 20
24.39678818834525
 30
0.0
 10
4.195265027162989
 20
26.89792751063663
 30
0.0
 10
8.485786944493137
 20
29.7559787251999
 30
0.0
 10
15.26160074488252
 20
34.8967502082897
 30
0.0
 10
21.12653129897184
 20
32.8944607122625
 30
0.0
 10
28.24995523382293
 20
30.46360133787021
 30
0.0
 10
24.50720349864751
 20
12.76683484923885
 30
0.0
 10
23.59528672370188
 20
4.676372611678129
 30
0.0
 10
22.06704236644505
 20
-8.88834635194458
 30
0.0
 10
20.56670328261874
 20
-21.62073024633093
 30
0.0
 10
19.00986463283434
 20
-35.18269313356544
 30
0.0
 10
17.46577283634536
 20
-48.63441296527196
 30
0.0
 10
13.86185844922551
 20
-64.25240883810356
 30
0.0
 10
27.47549776873877
 20
-65.87022567797689
 30
0.0
 10
38.52185193264384
 20
-67.18349607695413
 30
0.0
 10
49.49792614864982
 20
-64.88768444558363
 30
0.0
 10
58.5158080908398
 20
-62.69591469786769
 30
0.0
 10
67.73591713801395
 20
-60.4552245942612
 30
0.0
 10
76.26562904994401
 20
-57.31123045442219
 30
0.0
 10
83.5599297208635
 20
-53.17229273844304
 30
0.0
 10
84.60103757650599
 20
-45.27751192444451
 30
0.0
 10
85.36791583152261
 20
-37.1085015098201
 30
0.0
 10
86.38180743283164
 20
-29.18615993193957
 30
0.0
 10
81.27686494278842
 20
-30.45464408960856
 30
0.0
 10
75.20867375506937
 20
-35.61746418380397
 30
0.0
 10
67.33387449488528
 20
-34.12435980049669
 30
0.0
 10
63.76716713900613
 20
-27.62759873441255
 30
0.0
 10
66.21559650037318
 20
-19.91127386654996
 30
0.0
 10
66.98178573629275
 20
-12.96044921550989
 30
0.0
 10
68.62647432095102
 20
1.968527560271757
 30
0.0
 10
70.12577987613176
 20
16.0107367581501
 30
0.0
 10
71.91998560484987
 20
30.777794046125
 30
0.0
 10
72.82880179385877
 20
38.26329751647584
 30
0.0
 10
74.82833521349778
 20
46.27245550058466
 30
0.0
 10
74.03596325189032
 20
53.35281574187013
 30
0.0
 10
72.95627032681301
 20
63.00390623424903
 30
0.0
 10
65.8435261879662
 20
68.73172198802541
 30
0.0
 10
56.75226371194041
 20
69.57852645829982
 30
0.0
 10
31.48800048040925
 20
71.93290471291955
 30
0.0
 10
8.887140568524742
 20
53.59259438764352
 30
0.0
 10
-5.681823729048294
 20
44.88752711551423
 30
0.0
 10
-3.476962618488399
 20
62.80409069610454
 30
0.0
 10
-1.389234754426997
 20
82.8449001528999
 30
0.0
 10
0.667831759815681
 20
100.9723035771875
 30
0.0
  0
SPLINE
  5
4C
330
1F
100
AcDbEntity
  8
Layer 1
 62
     7
420
 16777215
370
     9
100
AcDbSpline
210
0.0
220
0.0
230
1.0
 70
    11
 71
     3
 72
    20
 73
    16
 74
     0
 42
0.0000000001
 43
0.0000000001
 40
0.0
 40
0.0
 40
0.0
 40
0.0
 40
1.0
 40
1.0
 40
1.0
 40
2.0
 40
2.0
 40
2.0
 40
3.0
 40
3.0
 40
3.0
 40
4.0
 40
4.0
 40
4.0
 40
5.0
 40
5.0
 40
5.0
 40
5.0
 10
141.0559895480693
 20
118.2563476266859
 30
0.0
 10
136.6738280908316
 20
113.6213161608308
 30
0.0
 10
132.3846842116955
 20
99.3772243675168
 30
0.0
 10
138.9393228819318
 20
91.44868161776283
 30
0.0
 10
147.4976290863895
 20
81.09616968458707
 30
0.0
 10
169.4270398881988
 20
82.24545353846642
 30
0.0
 10
179.8560329411471
 20
90.39034828469408
 30
0.0
 10
187.5509982170011
 20
96.3999728491639
 30
0.0
 10
191.0911783376439
 20
111.4922471509464
 30
0.0
 10
184.4414550320147
 20
119.6674587374442
 30
0.0
 10
179.8808376286409
 20
125.2746961492369
 30
0.0
 10
170.8043890632017
 20
127.0992187182252
 30
0.0
 10
160.1032334669187
 20
126.0167697167597
 30
0.0
 10
151.7530110297701
 20
125.1720323037764
 30
0.0
 10
145.8246907187522
 20
123.3006564361887
 30
0.0
 10
141.0559895480693
 20
118.2563476266859
 30
0.0
  0
SPLINE
  5
4D
330
1F
100
AcDbEntity
  8
Layer 1
 62
     7
420
 16777215
370
     9
100
AcDbSpline
210
0.0
220
0.0
230
1.0
 70
    11
 71
     3
 72
    53
 73
    49
 74
     0
 42
0.0000000001
 43
0.0000000001
 40
0.0
 40
0.0
 40
0.0
 40
0.0
 40
1.0
 40
1.0
 40
1.0
 40
2.0
 40
2.0
 40
2.0
 40
3.0
 40
3.0
 40
3.0
 40
4.0
 40
4.0
 40
4.0
 40
5.0
 40
5.0
 40
5.0
 40
6.0
 40
6.0
 40
6.0
 40
7.0
 40
7.0
 40
7.0
 40
8.0
 40
8.0
 40
8.0
 40
9.0
 40
9.0
 40
9.0
 40
10.0
 40
10.0
 40
10.0
 40
11.0
 40
11.0
 40
11.0
 40
12.0
 40
12.0
 40
12.0
 40
13.0
 40
13.0
 40
13.0
 40
14.0
 40
14.0
 40
14.0
 40
15.0
 40
15.0
 40
15.0
 40
16.0
 40
16.0
 40
16.0
 40
16.0
 10
-247.3039400965942
 20
-34.12435980049669
 30
0.0
 10
-251.8700696527443
 20
-32.22817924541518
 30
0.0
 10
-251.3498602344716
 20
-21.77369248587602
 30
0.0
 10
-250.8313733639415
 20
-15.07642686255034
 30
0.0
 10
-250.2126342147906
 20
-7.085872394061866
 30
0.0
 10
-249.3258666368873
 20
0.0757921006754964
 30
0.0
 10
-248.714706697804
 20
6.086794703339413
 30
0.0
 10
-247.1037800489011
 20
21.94181314555621
 30
0.0
 10
-241.2243800937738
 20
50.31286348568567
 30
0.0
 10
-250.4785955862519
 20
60.40768227656475
 30
0.0
 10
-257.9306816303958
 20
68.53672958356026
 30
0.0
 10
-279.3102551927593
 20
72.68600258599517
 30
0.0
 10
-296.3341945331213
 20
70.63685979136856
 30
0.0
 10
-317.7978284253248
 20
68.05303817743119
 30
0.0
 10
-340.1844033980269
 20
67.65065102475401
 30
0.0
 10
-357.7096041314928
 20
58.99657116580642
 30
0.0
 10
-358.643569517544
 20
48.7605034600321
 30
0.0
 10
-359.2881468828342
 20
38.23504773349679
 30
0.0
 10
-360.8842596211505
 20
28.66181639908455
 30
0.0
 10
-352.8575316500669
 20
27.98726670307263
 30
0.0
 10
-343.7066690221463
 20
28.43788519254331
 30
0.0
 10
-335.1345824357476
 20
28.30903862139496
 30
0.0
 10
-331.9537257742164
 20
34.69693467014521
 30
0.0
 10
-329.823278726138
 20
39.50284287206873
 30
0.0
 10
-323.8470715878751
 20
43.4764160047559
 30
0.0
 10
-318.4231132558977
 20
47.08343097781248
 30
0.0
 10
-305.2294310760364
 20
50.35971678428508
 30
0.0
 10
-297.7449611343311
 20
45.94517142948593
 30
0.0
 10
-289.9855725729029
 20
41.3693956059771
 30
0.0
 10
-292.4674193604769
 20
25.17537976801171
 30
0.0
 10
-293.5119723116047
 20
13.14097221893698
 30
0.0
 10
-294.7808009788222
 20
-1.47381184858988
 30
0.0
 10
-296.1285223326519
 20
-16.39658745249807
 30
0.0
 10
-297.3921833566416
 20
-30.95004882038749
 30
0.0
 10
-298.0722452054299
 20
-38.78419595384562
 30
0.0
 10
-299.5205633474289
 20
-46.60456270536275
 30
0.0
 10
-298.8032944673999
 20
-53.52438149703558
 30
0.0
 10
-297.9589015639651
 20
-61.66583114777799
 30
0.0
 10
-292.6338174724145
 20
-65.23839516598207
 30
0.0
 10
-285.0463391757002
 20
-65.87022567797689
 30
0.0
 10
-264.0336682825159
 20
-67.61964516538676
 30
0.0
 10
-244.0831203274341
 20
-59.89505206835958
 30
0.0
 10
-229.6671182694062
 20
-53.52438149703558
 30
0.0
 10
-229.2361368242014
 20
-45.49041882543295
 30
0.0
 10
-228.5460841985058
 20
-37.71552733432112
 30
0.0
 10
-228.2560071586478
 20
-29.53893770962916
 30
0.0
 10
-232.8596882555872
 20
-30.24587130320242
 30
0.0
 10
-240.0471909664639
 20
-37.13812933099324
 30
0.0
 10
-247.3039400965942
 20
-34.12435980049669
 30
0.0
  0
SPLINE
  5
4E
330
1F
100
AcDbEntity
  8
Layer 1
 62
     7
420
 16777215
370
     9
100
AcDbSpline
210
0.0
220
0.0
230
1.0
 70
    11
 71
     3
 72
    74
 73
    70
 74
     0
 42
0.0000000001
 43
0.0000000001
 40
0.0
 40
0.0
 40
0.0
 40
0.0
 40
1.0
 40
1.0
 40
1.0
 40
2.0
 40
2.0
 40
2.0
 40
3.0
 40
3.0
 40
3.0
 40
4.0
 40
4.0
 40
4.0
 40
5.0
 40
5.0
 40
5.0
 40
6.0
 40
6.0
 40
6.0
 40
7.0
 40
7.0
 40
7.0
 40
8.0
 40
8.0
 40
8.0
 40
9.0
 40
9.0
 40
9.0
 40
10.0
 40
10.0
 40
10.0
 40
11.0
 40
11.0
 40
11.0
 40
12.0
 40
12.0
 40
12.0
 40
13.0
 40
13.0
 40
13.0
 40
14.0
 40
14.0
 40
14.0
 40
15.0
 40
15.0
 40
15.0
 40
16.0
 40
16.0
 40
16.0
 40
17.0
 40
17.0
 40
17.0
 40
18.0
 40
18.0
 40
18.0
 40
19.0
 40
19.0
 40
19.0
 40
20.0
 40
20.0
 40
20.0
 40
21.0
 40
21.0
 40
21.0
 40
22.0
 40
22.0
 40
22.0
 40
23.0
 40
23.0
 40
23.0
 40
23.0
 10
756.5760414775227
 20
46.65141600396215
 30
0.0
 10
755.1297903928148
 20
54.43319768604448
 30
0.0
 10
753.1702200808047
 20
66.64881725764336
 30
0.0
 10
747.0524195180981
 20
69.22643769970728
 30
0.0
 10
744.1592283295852
 20
70.44600150148572
 30
0.0
 10
740.6817489467741
 20
70.14972328975423
 30
0.0
 10
737.5281085395764
 20
69.93199325508645
 30
0.0
 10
728.8719616233376
 20
69.33530271704117
 30
0.0
 10
720.0876571550475
 20
66.68464625068995
 30
0.0
 10
712.4843314191012
 20
63.582682275771
 30
0.0
 10
705.2454967854942
 20
60.62954642581484
 30
0.0
 10
698.1761608497616
 20
57.41044920439739
 30
0.0
 10
693.0836207034653
 20
53.0007269832776
 30
0.0
 10
692.2140786029881
 20
45.75775823508834
 30
0.0
 10
691.6835338982597
 20
38.1757920911505
 30
0.0
 10
691.3204208341143
 20
30.42570528753246
 30
0.0
 10
694.7710284721406
 20
31.29042425433017
 30
0.0
 10
698.6839679242873
 20
35.68981118899421
 30
0.0
 10
704.3711315513378
 20
34.65903861980746
 30
0.0
 10
710.8003687459111
 20
33.49321830759892
 30
0.0
 10
713.3890134935277
 20
19.87888996898861
 30
0.0
 10
715.3058646215208
 20
13.14166123803403
 30
0.0
 10
722.5825953054655
 20
-12.42439235800501
 30
0.0
 10
727.6124347139303
 20
-41.85446505030028
 30
0.0
 10
732.5899086710192
 20
-66.92855901104564
 30
0.0
 10
737.8808863172659
 20
-66.92855901104564
 30
0.0
 10
743.1718639635126
 20
-66.92855901104564
 30
0.0
 10
748.4628416097594
 20
-66.92855901104564
 30
0.0
 10
737.2573240344357
 20
-82.65817597759934
 30
0.0
 10
723.6354164857579
 20
-97.4438367811946
 30
0.0
 10
709.310020438992
 20
-109.6091579587088
 30
0.0
 10
707.4241751703662
 20
-111.21112735935
 30
0.0
 10
704.0507376712096
 20
-112.6098361263614
 30
0.0
 10
704.0190427927453
 20
-115.6056911603347
 30
0.0
 10
719.6873370596616
 20
-119.2202853434588
 30
0.0
 10
734.890543436069
 20
-123.2999674170917
 30
0.0
 10
748.8156193874489
 20
-128.6570908966552
 30
0.0
 10
764.8573620049663
 20
-101.3140570493243
 30
0.0
 10
781.0878958550753
 20
-73.45563691739999
 30
0.0
 10
797.8455293144275
 20
-40.12089300212256
 30
0.0
 10
808.9917912474049
 20
-17.94894747815165
 30
0.0
 10
821.3645071731312
 20
5.574164495134237
 30
0.0
 10
829.9441729695973
 20
31.13126084291163
 30
0.0
 10
832.751236770979
 20
39.49319660471004
 30
0.0
 10
837.000417542486
 20
50.25567490063053
 30
0.0
 10
835.5879283935336
 20
60.05559351797221
 30
0.0
 10
834.146500442505
 20
70.05601669255545
 30
0.0
 10
825.2023435436995
 20
70.70093856739422
 30
0.0
 10
814.0712400308572
 20
69.57921547739687
 30
0.0
 10
800.2061087409207
 20
68.18188474857953
 30
0.0
 10
788.9447806187361
 20
64.3977918675811
 30
0.0
 10
779.5038409509574
 20
59.70281574028263
 30
0.0
 10
779.1924043190908
 20
52.60591904066797
 30
0.0
 10
776.9379338335433
 20
45.57310111707895
 30
0.0
 10
777.3871742848199
 20
38.89168293298541
 30
0.0
 10
780.2955238934678
 20
40.05336913061166
 30
0.0
 10
784.4172361320208
 20
41.65464951215579
 30
0.0
 10
787.9691295773133
 20
40.30279404374375
 30
0.0
 10
794.3425562250255
 20
37.87537976483672
 30
0.0
 10
791.2309459827478
 20
25.13679469857691
 30
0.0
 10
789.7330184657612
 20
19.13888345875695
 30
0.0
 10
784.9153969391879
 20
-0.1508951822539429
 30
0.0
 10
777.8557072708139
 20
-14.42048068215877
 30
0.0
 10
771.0378633055044
 20
-30.24380424591127
 30
0.0
 10
769.7053003718098
 20
-33.33612195347153
 30
0.0
 10
769.1713105715961
 20
-37.53776040728223
 30
0.0
 10
766.0996634369474
 20
-39.06187064995676
 30
0.0
 10
763.6467554514495
 20
-10.40970051823091
 30
0.0
 10
761.6334416498695
 20
19.43998480416778
 30
0.0
 10
756.5760414775227
 20
46.65141600396215
 30
0.0
  0
SPLINE
  5
4F
330
1F
100
AcDbEntity
  8
Layer 1
 62
     7
420
 16777215
370
     9
100
AcDbSpline
210
0.0
220
0.0
230
1.0
 70
    11
 71
     3
 72
   104
 73
   100
 74
     0
 42
0.0000000001
 43
0.0000000001
 40
0.0
 40
0.0
 40
0.0
 40
0.0
 40
1.0
 40
1.0
 40
1.0
 40
2.0
 40
2.0
 40
2.0
 40
3.0
 40
3.0
 40
3.0
 40
4.0
 40
4.0
 40
4.0
 40
5.0
 40
5.0
 40
5.0
 40
6.0
 40
6.0
 40
6.0
 40
7.0
 40
7.0
 40
7.0
 40
8.0
 40
8.0
 40
8.0
 40
9.0
 40
9.0
 40
9.0
 40
10.0
 40
10.0
 40
10.0
 40
11.0
 40
11.0
 40
11.0
 40
12.0
 40
12.0
 40
12.0
 40
13.0
 40
13.0
 40
13.0
 40
14.0
 40
14.0
 40
14.0
 40
15.0
 40
15.0
 40
15.0
 40
16.0
 40
16.0
 40
16.0
 40
17.0
 40
17.0
 40
17.0
 40
18.0
 40
18.0
 40
18.0
 40
19.0
 40
19.0
 40
19.0
 40
20.0
 40
20.0
 40
20.0
 40
21.0
 40
21.0
 40
21.0
 40
22.0
 40
22.0
 40
22.0
 40
23.0
 40
23.0
 40
23.0
 40
24.0
 40
24.0
 40
24.0
 40
25.0
 40
25.0
 40
25.0
 40
26.0
 40
26.0
 40
26.0
 40
27.0
 40
27.0
 40
27.0
 40
28.0
 40
28.0
 40
28.0
 40
29.0
 40
29.0
 40
29.0
 40
30.0
 40
30.0
 40
30.0
 40
31.0
 40
31.0
 40
31.0
 40
32.0
 40
32.0
 40
32.0
 40
33.0
 40
33.0
 40
33.0
 40
33.0
 10
-571.8188434442849
 20
67.11046005266684
 30
0.0
 10
-574.426780726619
 20
69.7177083159039
 30
0.0
 10
-579.6874415325955
 20
69.9368163887658
 30
0.0
 10
-584.8702431806054
 20
69.57921547739687
 30
0.0
 10
-594.5147879915623
 20
68.91500106784069
 30
0.0
 10
-603.6453245561199
 20
66.02732203210428
 30
0.0
 10
-612.7362425225972
 20
62.87712672039184
 30
0.0
 10
-621.4798948641613
 20
59.84750975066313
 30
0.0
 10
-629.9565523056185
 20
56.89023978612467
 30
0.0
 10
-635.664041996032
 20
52.64794920558801
 30
0.0
 10
-636.5018892180447
 20
45.37328557893446
 30
0.0
 10
-637.1106375902883
 20
37.86917859296327
 30
0.0
 10
-637.4279308844799
 20
30.07292750984288
 30
0.0
 10
-632.7081500696876
 20
30.87494573880904
 30
0.0
 10
-625.2178234656574
 20
36.22586804649909
 30
0.0
 10
-619.7911090572918
 20
32.89514973135955
 30
0.0
 10
-615.3004270922687
 20
30.13838432406263
 30
0.0
 10
-617.5466293486515
 20
15.37132703608772
 30
0.0
 10
-618.0272201688439
 20
8.203461369476912
 30
0.0
 10
-619.7876639618066
 20
-18.0529893618062
 30
0.0
 10
-623.3850326675044
 20
-45.13419595225812
 30
0.0
 10
-625.7876422589177
 20
-67.9868923441144
 30
0.0
 10
-611.1184256827239
 20
-63.37322047026781
 30
0.0
 10
-595.4794147274323
 20
-59.72899846597053
 30
0.0
 10
-578.5212767108385
 20
-57.40493705162099
 30
0.0
 10
-578.5043957429607
 20
-32.46657985299447
 30
0.0
 10
-575.2994234130329
 20
-7.738373478968184
 30
0.0
 10
-573.2302990645918
 20
16.31666123724028
 30
0.0
 10
-569.9226628892034
 20
20.04494357137765
 30
0.0
 10
-567.0987181199441
 20
23.68020832741328
 30
0.0
 10
-562.6479992625499
 20
27.25139430742326
 30
0.0
 10
-559.6128701400447
 20
29.6870768154949
 30
0.0
 10
-552.7998493084147
 20
35.09656574643419
 30
0.0
 10
-547.1274995919508
 20
33.60070528673872
 30
0.0
 10
-544.1664400223785
 20
32.81935763068405
 30
0.0
 10
-542.6650674099067
 20
27.73026257987299
 30
0.0
 10
-542.5420775010832
 20
23.3715277719349
 30
0.0
 10
-542.1469250489251
 20
9.32173936398901
 30
0.0
 10
-544.7703652609429
 20
-7.208517793336759
 30
0.0
 10
-546.4222885461202
 20
-22.83684895262412
 30
0.0
 10
-548.1307113972556
 20
-38.99848089302816
 30
0.0
 10
-549.5817856156427
 20
-54.71914061132022
 30
0.0
 10
-551.7132661923669
 20
-67.98620332501734
 30
0.0
 10
-536.7791217733574
 20
-63.40215927234391
 30
0.0
 10
-520.8944755099674
 20
-59.76896157359943
 30
0.0
 10
-503.741689598457
 20
-57.40424803252394
 30
0.0
 10
-504.0613944594882
 20
-31.73139647644215
 30
0.0
 10
-500.7620265132644
 20
-7.141682940922913
 30
0.0
 10
-498.0979341745207
 20
16.67012803402691
 30
0.0
 10
-494.9952811805047
 20
20.78632811980342
 30
0.0
 10
-491.7496567238508
 20
23.96408419539787
 30
0.0
 10
-487.1632011043377
 20
27.6048611042099
 30
0.0
 10
-484.0154173594649
 20
30.10324435011308
 30
0.0
 10
-477.3067829210379
 20
35.40111218733028
 30
0.0
 10
-471.6427014337386
 20
33.24861652814618
 30
0.0
 10
-464.2956908018949
 20
30.45602212780266
 30
0.0
 10
-468.1583318599569
 20
11.86421983210339
 30
0.0
 10
-469.1736014994601
 20
3.265950520016846
 30
0.0
 10
-470.9467921457182
 20
-11.74777560470195
 30
0.0
 10
-472.937023807547
 20
-25.20707464647601
 30
0.0
 10
-474.4645791457068
 20
-40.1202039830255
 30
0.0
 10
-475.1777139111535
 20
-47.08411999690953
 30
0.0
 10
-476.6708182944608
 20
-57.41940645265904
 30
0.0
 10
-473.7590235903276
 20
-61.63689234570189
 30
0.0
 10
-468.2013955535226
 20
-69.68601343743961
 30
0.0
 10
-443.7122788061727
 20
-65.23081595591452
 30
0.0
 10
-434.2527356227736
 20
-63.04800345646022
 30
0.0
 10
-424.9857732770001
 20
-60.90859916012008
 30
0.0
 10
-416.9773043119883
 20
-57.2161458190293
 30
0.0
 10
-409.9145140576776
 20
-53.52369247793852
 30
0.0
 10
-409.2265284892732
 20
-45.27613388625041
 30
0.0
 10
-407.9111910330049
 20
-37.65489365378073
 30
0.0
 10
-407.0926363457095
 20
-29.53824869053211
 30
0.0
 10
-410.9859387535903
 20
-30.20315211918533
 30
0.0
 10
-418.3425956527929
 20
-37.39582247328993
 30
0.0
 10
-425.0818914410386
 20
-34.12367078139964
 30
0.0
 10
-429.073379070249
 20
-32.18546006139808
 30
0.0
 10
-427.8644950644749
 20
-20.62371961289963
 30
0.0
 10
-427.1985581071761
 20
-14.01809352948159
 30
0.0
 10
-425.5524914843237
 20
2.308213975117391
 30
0.0
 10
-424.1623954560254
 20
13.52475585599381
 30
0.0
 10
-422.2603582386189
 20
28.66319443727865
 30
0.0
 10
-421.3518865591586
 20
35.89031574623576
 30
0.0
 10
-419.682048777458
 20
43.41784938150665
 30
0.0
 10
-419.7909137947919
 20
50.17988279995503
 30
0.0
 10
-419.9759154223498
 20
61.66514212868094
 30
0.0
 10
-426.0261921135456
 20
68.6821126130378
 30
0.0
 10
-435.663846733532
 20
69.57990449649391
 30
0.0
 10
-463.2297782587585
 20
72.14856769029619
 30
0.0
 10
-480.5010754549616
 20
52.82364907533576
 30
0.0
 10
-495.9816120179317
 20
44.53612737601875
 30
0.0
 10
-494.7355209809168
 20
59.17089299736006
 30
0.0
 10
-500.2111557451729
 20
68.27903644126357
 30
0.0
 10
-511.1493339108412
 20
69.57990449649391
 30
0.0
 10
-536.5979097508332
 20
72.60676538983442
 30
0.0
 10
-557.0504081181159
 20
53.84959851084316
 30
0.0
 10
-570.4084213526236
 20
44.53612737601875
 30
0.0
 10
-570.3505437484714
 20
52.31653101990698
 30
0.0
 10
-567.1927692266914
 20
62.48438583507335
 30
0.0
 10
-571.8188434442849
 20
67.11046005266684
 30
0.0
  0
SPLINE
  5
50
330
1F
100
AcDbEntity
  8
Layer 1
 62
     7
420
 16777215
370
     9
100
AcDbSpline
210
0.0
220
0.0
230
1.0
 70
    11
 71
     3
 72
    47
 73
    43
 74
     0
 42
0.0000000001
 43
0.0000000001
 40
0.0
 40
0.0
 40
0.0
 40
0.0
 40
1.0
 40
1.0
 40
1.0
 40
2.0
 40
2.0
 40
2.0
 40
3.0
 40
3.0
 40
3.0
 40
4.0
 40
4.0
 40
4.0
 40
5.0
 40
5.0
 40
5.0
 40
6.0
 40
6.0
 40
6.0
 40
7.0
 40
7.0
 40
7.0
 40
8.0
 40
8.0
 40
8.0
 40
9.0
 40
9.0
 40
9.0
 40
10.0
 40
10.0
 40
10.0
 40
11.0
 40
11.0
 40
11.0
 40
12.0
 40
12.0
 40
12.0
 40
13.0
 40
13.0
 40
13.0
 40
14.0
 40
14.0
 40
14.0
 40
14.0
 10
176.6817219610379
 20
-33.77158202280711
 30
0.0
 10
171.5347493060746
 20
-31.63217772646696
 30
0.0
 10
173.9097981336059
 20
-16.72111544720861
 30
0.0
 10
174.5657443139975
 20
-9.432671438614054
 30
0.0
 10
176.3034504767575
 20
9.875021698920134
 30
0.0
 10
177.4444661014722
 20
24.08741861376981
 30
0.0
 10
179.5039441825546
 20
42.77086044937673
 30
0.0
 10
180.2742675330564
 20
49.76095918894865
 30
0.0
 10
183.2770127580002
 20
63.33601343902711
 30
0.0
 10
179.151166404865
 20
67.46254881125937
 30
0.0
 10
176.8849825946677
 20
69.72873262145671
 30
0.0
 10
173.8539875867448
 20
70.01880966131475
 30
0.0
 10
167.8636555569924
 20
69.57852645829982
 30
0.0
 10
146.7011230101997
 20
68.02272133716099
 30
0.0
 10
129.0966850805731
 20
60.14792207697691
 30
0.0
 10
112.1316568730088
 20
53.35281574187013
 30
0.0
 10
111.3082790520341
 20
45.71090493648894
 30
0.0
 10
110.5124619949413
 20
38.0407443481287
 30
0.0
 10
110.0156792259683
 20
30.07223849074583
 30
0.0
 10
113.6178710653455
 20
30.30030381186937
 30
0.0
 10
123.8890787450694
 20
36.66959634499927
 30
0.0
 10
129.7684787001968
 20
32.8944607122625
 30
0.0
 10
133.6531683693645
 20
30.40090060003866
 30
0.0
 10
131.4855142900453
 20
18.39198675755478
 30
0.0
 10
130.8268120332655
 20
11.37846136868316
 30
0.0
 10
129.247580262827
 20
-5.423269312880294
 30
0.0
 10
127.6924641607852
 20
-18.93562282512721
 30
0.0
 10
125.8886121647084
 20
-35.18269313356544
 30
0.0
 10
125.1231119478859
 20
-42.07564018045331
 30
0.0
 10
122.863129309562
 20
-52.80297850242426
 30
0.0
 10
125.1830566093292
 20
-58.81535914328227
 30
0.0
 10
129.7360948026354
 20
-70.61618921845707
 30
0.0
 10
156.1207030859698
 20
-65.13504230142458
 30
0.0
 10
167.5108777793028
 20
-62.34313692017811
 30
0.0
 10
176.6934352856878
 20
-60.09211153011587
 30
0.0
 10
185.6679090247636
 20
-57.47728405681124
 30
0.0
 10
192.2018771220884
 20
-52.81951496075346
 30
0.0
 10
193.0445474777805
 20
-45.19551865189557
 30
0.0
 10
193.0417914013923
 20
-36.72747394915147
 30
0.0
 10
193.9657660105364
 20
-29.18615993193957
 30
0.0
 10
189.7916883206076
 20
-30.08326279629863
 30
0.0
 10
182.5411403623508
 20
-36.20795354997579
 30
0.0
 10
176.6817219610379
 20
-33.77158202280711
 30
0.0
  0
SPLINE
  5
51
330
1F
100
AcDbEntity
  8
Layer 1
 62
     7
420
 16777215
370
     9
100
AcDbSpline
210
0.0
220
0.0
230
1.0
 70
    11
 71
     3
 72
    80
 73
    76
 74
     0
 42
0.0000000001
 43
0.0000000001
 40
0.0
 40
0.0
 40
0.0
 40
0.0
 40
1.0
 40
1.0
 40
1.0
 40
2.0
 40
2.0
 40
2.0
 40
3.0
 40
3.0
 40
3.0
 40
4.0
 40
4.0
 40
4.0
 40
5.0
 40
5.0
 40
5.0
 40
6.0
 40
6.0
 40
6.0
 40
7.0
 40
7.0
 40
7.0
 40
8.0
 40
8.0
 40
8.0
 40
9.0
 40
9.0
 40
9.0
 40
10.0
 40
10.0
 40
10.0
 40
11.0
 40
11.0
 40
11.0
 40
12.0
 40
12.0
 40
12.0
 40
13.0
 40
13.0
 40
13.0
 40
14.0
 40
14.0
 40
14.0
 40
15.0
 40
15.0
 40
15.0
 40
16.0
 40
16.0
 40
16.0
 40
17.0
 40
17.0
 40
17.0
 40
18.0
 40
18.0
 40
18.0
 40
19.0
 40
19.0
 40
19.0
 40
20.0
 40
20.0
 40
20.0
 40
21.0
 40
21.0
 40
21.0
 40
22.0
 40
22.0
 40
22.0
 40
23.0
 40
23.0
 40
23.0
 40
24.0
 40
24.0
 40
24.0
 40
25.0
 40
25.0
 40
25.0
 40
25.0
 10
284.971408348896
 20
67.816015608046
 30
0.0
 10
281.7736707194871
 20
70.02294377589705
 30
0.0
 10
277.3129610851856
 20
69.90167641481625
 30
0.0
 10
272.2727863902651
 20
69.57921547739687
 30
0.0
 10
252.6784613083582
 20
68.32520072076592
 30
0.0
 10
232.8981010702477
 20
59.53193900421424
 30
0.0
 10
219.3630099277981
 20
53.35350476096718
 30
0.0
 10
218.6450520286721
 20
45.4883517681418
 30
0.0
 10
217.8182291122121
 20
37.73206379265032
 30
0.0
 10
216.8935654839711
 20
30.07292750984288
 30
0.0
 10
222.4952907429873
 20
30.61725259651235
 30
0.0
 10
229.5122612273442
 20
36.25480684857519
 30
0.0
 10
236.294276199607
 20
33.24792750904913
 30
0.0
 10
241.4495170837349
 20
30.96176214503734
 30
0.0
 10
239.2391438203986
 20
16.43448350283582
 30
0.0
 10
238.763031624337
 20
8.909016924856079
 30
0.0
 10
237.0811360084381
 20
-17.68574218307857
 30
0.0
 10
233.1792208618441
 20
-45.60617403373735
 30
0.0
 10
229.592187442602
 20
-67.63411456642481
 30
0.0
 10
245.7510633066178
 20
-63.56959091292705
 30
0.0
 10
262.1331813580778
 20
-59.72830944687348
 30
0.0
 10
280.0325194612419
 20
-57.40493705162099
 30
0.0
 10
279.9119411192581
 20
-38.52305771606368
 30
0.0
 10
281.7888291396222
 20
-19.47374673992323
 30
0.0
 10
283.2075194604481
 20
-1.672938367637321
 30
0.0
 10
283.6670951981804
 20
4.092084417379757
 30
0.0
 10
283.4080240176897
 20
11.60170355612735
 30
0.0
 10
284.971408348896
 20
16.31666123724028
 30
0.0
 10
286.3363551801521
 20
20.43423936121089
 30
0.0
 10
293.1852050048287
 20
25.07340494164832
 30
0.0
 10
296.9637857330507
 20
27.60417208511285
 30
0.0
 10
301.2267468864989
 20
30.45877820419086
 30
0.0
 10
308.5289712770344
 20
35.04626735234955
 30
0.0
 10
314.2478297825492
 20
33.24792750904913
 30
0.0
 10
322.3238226190718
 20
30.70820311732295
 30
0.0
 10
317.6922362487019
 20
10.69564344350665
 30
0.0
 10
316.7172742263763
 20
2.206928167851046
 30
0.0
 10
314.9334037841139
 20
-13.32425129875227
 30
0.0
 10
313.7200411542089
 20
-25.44203015857005
 30
0.0
 10
312.1318521355087
 20
-40.47367077981214
 30
0.0
 10
310.7186739674592
 20
-53.84684243445496
 30
0.0
 10
309.7381997923571
 20
-64.49356552207105
 30
0.0
 10
322.008251872623
 20
-65.87022567797689
 30
0.0
 10
332.461360593968
 20
-67.04362520025299
 30
0.0
 10
342.8882865896252
 20
-64.42466361236606
 30
0.0
 10
351.9902288616552
 20
-62.34313692017811
 30
0.0
 10
361.3891383645138
 20
-60.19339733738221
 30
0.0
 10
370.6240613222745
 20
-57.91618922163207
 30
0.0
 10
376.6812282044408
 20
-53.17229273844304
 30
0.0
 10
378.0365287683381
 20
-45.70814886010074
 30
0.0
 10
378.7531086292701
 20
-37.60666231698723
 30
0.0
 10
379.856228203647
 20
-29.89171548731874
 30
0.0
 10
374.9910643593773
 20
-30.7736599315427
 30
0.0
 10
368.6927407932435
 20
-37.92154404433906
 30
0.0
 10
362.2200953955561
 20
-34.82991535587585
 30
0.0
 10
357.9640244330785
 20
-32.79730901957845
 30
0.0
 10
359.4964029049176
 20
-19.65289170515622
 30
0.0
 10
360.1034287294186
 20
-14.01878254857864
 30
0.0
 10
361.9100368018836
 20
2.75607638819987
 30
0.0
 10
363.7104437024752
 20
13.51442056953806
 30
0.0
 10
365.7471841533549
 20
29.7201497321533
 30
0.0
 10
366.6994085454779
 20
37.30004881879999
 30
0.0
 10
368.4557182238583
 20
45.5572536778468
 30
0.0
 10
367.8638508194924
 20
52.29517142789843
 30
0.0
 10
366.9977538145006
 20
62.13849824835427
 30
0.0
 10
361.0956162291706
 20
68.6821126130378
 30
0.0
 10
352.3430066393448
 20
69.57852645829982
 30
0.0
 10
338.6818250021351
 20
70.9793022826024
 30
0.0
 10
324.9586316461909
 20
66.21060111191957
 30
0.0
 10
314.6006075602388
 20
61.4660156096335
 30
0.0
 10
303.6224662869416
 20
56.43686522026579
 30
0.0
 10
294.6824435027183
 20
48.98650172386449
 30
0.0
 10
287.0873859959365
 20
43.47710502385295
 30
0.0
 10
287.7901854749275
 20
51.64680445757441
 30
0.0
 10
290.9362466720576
 20
63.69705944588129
 30
0.0
 10
284.971408348896
 20
67.816015608046
 30
0.0
  0
SPLINE
  5
52
330
1F
100
AcDbEntity
  8
Layer 1
 62
     7
420
 16777215
370
     9
100
AcDbSpline
210
0.0
220
0.0
230
1.0
 70
    11
 71
     3
 72
    23
 73
    19
 74
     0
 42
0.0000000001
 43
0.0000000001
 40
0.0
 40
0.0
 40
0.0
 40
0.0
 40
1.0
 40
1.0
 40
1.0
 40
2.0
 40
2.0
 40
2.0
 40
3.0
 40
3.0
 40
3.0
 40
4.0
 40
4.0
 40
4.0
 40
5.0
 40
5.0
 40
5.0
 40
6.0
 40
6.0
 40
6.0
 40
6.0
 10
532.2376246499267
 20
39.59723848836458
 30
0.0
 10
530.6480575930325
 20
61.4384548457515
 30
0.0
 10
513.143527432478
 20
68.94049477443154
 30
0.0
 10
489.5570257022636
 20
69.57921547739687
 30
0.0
 10
488.2031031765604
 20
61.17456053158136
 30
0.0
 10
487.9199163276728
 20
51.69848088985316
 30
0.0
 10
486.7348034807469
 20
43.12432724616337
 30
0.0
 10
493.3390515259708
 20
42.45597872202489
 30
0.0
 10
494.3229707965582
 20
33.37057290832402
 30
0.0
 10
493.7896700154415
 20
27.25139430742326
 30
0.0
 10
492.6631237917648
 20
14.32126193218357
 30
0.0
 10
482.7474499661187
 20
6.084727646048263
 30
0.0
 10
468.7458928949663
 20
6.440261500126046
 30
0.0
 10
468.548144414113
 20
-0.804085286257312
 30
0.0
 10
467.7385469750793
 20
-7.563362628317493
 30
0.0
 10
468.3931151172767
 20
-14.72364908486075
 30
0.0
 10
504.6741046915398
 20
-14.71951497027846
 30
0.0
 10
534.9020614982189
 20
2.980007594741109
 30
0.0
 10
532.2376246499267
 20
39.59723848836458
 30
0.0
  0
SPLINE
  5
53
330
1F
100
AcDbEntity
  8
Layer 1
 62
     7
420
 16777215
370
     9
100
AcDbSpline
210
0.0
220
0.0
230
1.0
 70
    11
 71
     3
 72
    62
 73
    58
 74
     0
 42
0.0000000001
 43
0.0000000001
 40
0.0
 40
0.0
 40
0.0
 40
0.0
 40
1.0
 40
1.0
 40
1.0
 40
2.0
 40
2.0
 40
2.0
 40
3.0
 40
3.0
 40
3.0
 40
4.0
 40
4.0
 40
4.0
 40
5.0
 40
5.0
 40
5.0
 40
6.0
 40
6.0
 40
6.0
 40
7.0
 40
7.0
 40
7.0
 40
8.0
 40
8.0
 40
8.0
 40
9.0
 40
9.0
 40
9.0
 40
10.0
 40
10.0
 40
10.0
 40
11.0
 40
11.0
 40
11.0
 40
12.0
 40
12.0
 40
12.0
 40
13.0
 40
13.0
 40
13.0
 40
14.0
 40
14.0
 40
14.0
 40
15.0
 40
15.0
 40
15.0
 40
16.0
 40
16.0
 40
16.0
 40
17.0
 40
17.0
 40
17.0
 40
18.0
 40
18.0
 40
18.0
 40
19.0
 40
19.0
 40
19.0
 40
19.0
 10
623.9481335245686
 20
63.93546005346058
 30
0.0
 10
621.735004184844
 20
68.78891057308056
 30
0.0
 10
615.5283201586179
 20
70.03396808144984
 30
0.0
 10
608.427289344421
 20
69.57921547739687
 30
0.0
 10
589.7734753299873
 20
68.38514538220927
 30
0.0
 10
569.4095159166754
 20
59.57603622642544
 30
0.0
 10
557.6341795480914
 20
53.35350476096718
 30
0.0
 10
557.2014755551442
 20
45.67231986705414
 30
0.0
 10
555.7152613628073
 20
37.1663791139723
 30
0.0
 10
555.8702906596436
 20
30.07292750984288
 30
0.0
 10
560.758192134116
 20
32.26952039123817
 30
0.0
 10
567.5071341897204
 20
34.38687607647272
 30
0.0
 10
574.5654458199003
 20
33.24792750904913
 30
0.0
 10
577.2174803244457
 20
31.56258679766491
 30
0.0
 10
577.9767793693948
 20
28.69075520116064
 30
0.0
 10
578.0925345776991
 20
25.13472764128576
 30
0.0
 10
578.5900063657692
 20
9.855040145105685
 30
0.0
 10
575.9352157848357
 20
-6.492626951501844
 30
0.0
 10
574.2126680422108
 20
-22.13129339724496
 30
0.0
 10
572.4618705166068
 20
-38.02627494709066
 30
0.0
 10
570.8530109249951
 20
-53.58846027306122
 30
0.0
 10
568.2161348405849
 20
-67.63342554732776
 30
0.0
 10
583.8334416943194
 20
-63.38011066123831
 30
0.0
 10
599.8000812302583
 20
-59.47612845735319
 30
0.0
 10
617.5988225452531
 20
-57.40424803252394
 30
0.0
 10
616.5246417729522
 20
-43.77682833106969
 30
0.0
 10
618.6206378661782
 20
-26.447998040263
 30
0.0
 10
619.7148001922935
 20
-13.31322699319947
 30
0.0
 10
620.1309677269118
 20
-8.322661673266557
 30
0.0
 10
619.9022133866912
 20
-2.919373914200712
 30
0.0
 10
621.1259113030519
 20
1.149283853879346
 30
0.0
 10
623.1020180733912
 20
7.714946829668486
 30
0.0
 10
628.3867945477645
 20
13.45103081260947
 30
0.0
 10
632.766199928614
 20
17.02221679261945
 30
0.0
 10
638.7861597795396
 20
21.93078884000342
 30
0.0
 10
650.3534123808145
 20
27.76057942014319
 30
0.0
 10
659.2210881598476
 20
24.4291720859066
 30
0.0
 10
662.5070202336789
 20
23.19513888309011
 30
0.0
 10
662.5194225774258
 20
20.0029134064576
 30
0.0
 10
666.9815102499214
 20
19.49097221734948
 30
0.0
 10
669.1801701886078
 20
25.46821288425795
 30
0.0
 10
670.4031790858714
 20
32.92684460982385
 30
0.0
 10
671.9197101184784
 20
41.36043835771545
 30
0.0
 10
672.948415630374
 20
47.08343097781248
 30
0.0
 10
676.863422139812
 20
58.98830293664182
 30
0.0
 10
674.7412433208981
 20
64.99379338652933
 30
0.0
 10
672.1284829048845
 20
72.39248045065189
 30
0.0
 10
659.4650009202032
 20
68.61872285610922
 30
0.0
 10
653.9301105136009
 20
66.05212671959808
 30
0.0
 10
641.1191784421508
 20
60.11002602663916
 30
0.0
 10
633.5950899023651
 20
50.28116860722137
 30
0.0
 10
627.1224445046778
 20
39.244460710675
 30
0.0
 10
625.8071070484093
 20
37.0010145306803
 30
0.0
 10
624.9182724132149
 20
33.49321830759892
 30
0.0
 10
622.8898001914998
 20
33.24792750904913
 30
0.0
 10
621.9658255823558
 20
42.3154188262267
 30
0.0
 10
628.049864209307
 20
54.94100476057031
 30
0.0
 10
623.9481335245686
 20
63.93546005346058
 30
0.0
  0
SPLINE
  5
54
330
1F
100
AcDbEntity
  8
Layer 1
 62
     7
420
 16777215
370
     9
100
AcDbSpline
210
0.0
220
0.0
230
1.0
 70
    11
 71
     3
 72
    47
 73
    43
 74
     0
 42
0.0000000001
 43
0.0000000001
 40
0.0
 40
0.0
 40
0.0
 40
0.0
 40
1.0
 40
1.0
 40
1.0
 40
2.0
 40
2.0
 40
2.0
 40
3.0
 40
3.0
 40
3.0
 40
4.0
 40
4.0
 40
4.0
 40
5.0
 40
5.0
 40
5.0
 40
6.0
 40
6.0
 40
6.0
 40
7.0
 40
7.0
 40
7.0
 40
8.0
 40
8.0
 40
8.0
 40
9.0
 40
9.0
 40
9.0
 40
10.0
 40
10.0
 40
10.0
 40
11.0
 40
11.0
 40
11.0
 40
12.0
 40
12.0
 40
12.0
 40
13.0
 40
13.0
 40
13.0
 40
14.0
 40
14.0
 40
14.0
 40
14.0
 10
-133.0184095262072
 20
68.8736599220177
 30
0.0
 10
-160.1133964986001
 20
67.30200736164673
 30
0.0
 10
-175.3796481223877
 20
58.90286456860762
 30
0.0
 10
-188.0448526548117
 20
42.4187716907842
 30
0.0
 10
-199.783671011252
 20
27.14046223279822
 30
0.0
 10
-206.3000691216021
 20
4.951291231401067
 30
0.0
 10
-204.2705633712414
 20
-22.48407117493454
 30
0.0
 10
-202.4460408022531
 20
-47.14888779203223
 30
0.0
 10
-187.8584729890597
 20
-61.45843639956595
 30
0.0
 10
-165.4701754686151
 20
-65.16467012259773
 30
0.0
 10
-147.4912556597418
 20
-68.14192164095063
 30
0.0
 10
-125.873281489799
 20
-64.90628796120399
 30
0.0
 10
-111.5017211635308
 20
-59.87369247635102
 30
0.0
 10
-108.4745157606418
 20
-58.81398110508817
 30
0.0
 10
-99.82801511176176
 20
-56.37692055882244
 30
0.0
 10
-98.09754364952076
 20
-52.81951496075346
 30
0.0
 10
-96.40152314213226
 20
-49.33170029148652
 30
0.0
 10
-97.1687459066974
 20
-43.42060545789485
 30
0.0
 10
-96.68677704831094
 20
-39.0625596690538
 30
0.0
 10
-96.1620890059074
 20
-34.32073024315593
 30
0.0
 10
-95.39900035592456
 20
-30.01987303937003
 30
0.0
 10
-94.92288815986304
 20
-25.65907117414079
 30
0.0
 10
-105.6395466858297
 20
-32.60782876788971
 30
0.0
 10
-119.2821248074191
 20
-41.08896483347776
 30
0.0
 10
-135.4871649509373
 20
-39.41533744674339
 30
0.0
 10
-148.3229017098811
 20
-38.08966470401925
 30
0.0
 10
-155.3619208053435
 20
-27.08602972413127
 30
0.0
 10
-156.298642267783
 20
-14.01878254857864
 30
0.0
 10
-157.9309285086944
 20
8.762255857184437
 30
0.0
 10
-152.6954168997602
 20
35.53822698764322
 30
0.0
 10
-138.3090426629054
 20
42.77086044937673
 30
0.0
 10
-123.0999796241729
 20
50.41897242663137
 30
0.0
 10
-112.9335028472007
 20
37.59012585865803
 30
0.0
 10
-114.3232543659504
 20
21.60763888348698
 30
0.0
 10
-107.3131740725641
 20
22.59293619226843
 30
0.0
 10
-99.16380070220558
 20
22.43790689543219
 30
0.0
 10
-91.74823267020531
 20
23.01874999424532
 30
0.0
 10
-90.52866886842686
 20
37.67211913120697
 30
0.0
 10
-88.59941539668695
 20
51.61510957911011
 30
0.0
 10
-85.75169946857945
 20
64.6403265897427
 30
0.0
 10
-99.70158010745308
 20
68.8998426477056
 30
0.0
 10
-116.0881767830439
 20
69.85620115441095
 30
0.0
 10
-133.0184095262072
 20
68.8736599220177
 30
0.0
  0
SPLINE
  5
55
330
1F
100
AcDbEntity
  8
Layer 1
 62
     7
420
 16777215
370
     9
100
AcDbSpline
210
0.0
220
0.0
230
1.0
 70
    11
 71
     3
 72
    29
 73
    25
 74
     0
 42
0.0000000001
 43
0.0000000001
 40
0.0
 40
0.0
 40
0.0
 40
0.0
 40
1.0
 40
1.0
 40
1.0
 40
2.0
 40
2.0
 40
2.0
 40
3.0
 40
3.0
 40
3.0
 40
4.0
 40
4.0
 40
4.0
 40
5.0
 40
5.0
 40
5.0
 40
6.0
 40
6.0
 40
6.0
 40
7.0
 40
7.0
 40
7.0
 40
8.0
 40
8.0
 40
8.0
 40
8.0
 10
415.4826496357127
 20
20.90139430901077
 30
0.0
 10
406.2084525894201
 20
-7.525466577979745
 30
0.0
 10
406.2642631362812
 20
-47.05931530941573
 30
0.0
 10
431.0028047967632
 20
-59.87438149544808
 30
0.0
 10
455.9108451551195
 20
-72.77695310680576
 30
0.0
 10
500.3815157169186
 20
-65.39755857740062
 30
0.0
 10
520.244558246675
 20
-54.23062607151179
 30
0.0
 10
520.9170408853957
 20
-44.90957572661983
 30
0.0
 10
521.6887422740917
 20
-35.68636609350897
 30
0.0
 10
522.3612249128125
 20
-26.36462672951996
 30
0.0
 10
511.8440374154418
 20
-33.49115125030777
 30
0.0
 10
484.7979707989394
 20
-46.30690645543716
 30
0.0
 10
468.0403373395872
 20
-37.65213757739252
 30
0.0
 10
454.993760736946
 20
-30.91421982734089
 30
0.0
 10
455.4733180284928
 20
-10.34148762762296
 30
0.0
 10
457.8111598247833
 20
8.202772350379863
 30
0.0
 10
459.8451441992748
 20
24.338221565096
 30
0.0
 10
464.7502711511736
 20
38.34735784631594
 30
0.0
 10
475.4479816519714
 20
43.12363822706632
 30
0.0
 10
475.9110024851889
 20
51.39531248715117
 30
0.0
 10
478.1585827797659
 20
61.90905488903663
 30
0.0
 10
477.5639592990118
 20
68.87297090292066
 30
0.0
 10
444.0865884306451
 20
66.80591361177075
 30
0.0
 10
424.0871201196727
 20
47.27566730588942
 30
0.0
 10
415.4826496357127
 20
20.90139430901077
 30
0.0
  0
SPLINE
  5
56
330
1F
100
AcDbEntity
  8
Layer 1
 62
     7
420
 16777215
370
     9
100
AcDbSpline
210
0.0
220
0.0
230
1.0
 70
    11
 71
     3
 72
    32
 73
    28
 74
     0
 42
0.0000000001
 43
0.0000000001
 40
0.0
 40
0.0
 40
0.0
 40
0.0
 40
1.0
 40
1.0
 40
1.0
 40
2.0
 40
2.0
 40
2.0
 40
3.0
 40
3.0
 40
3.0
 40
4.0
 40
4.0
 40
4.0
 40
5.0
 40
5.0
 40
5.0
 40
6.0
 40
6.0
 40
6.0
 40
7.0
 40
7.0
 40
7.0
 40
8.0
 40
8.0
 40
8.0
 40
9.0
 40
9.0
 40
9.0
 40
9.0
 10
-306.5637165574736
 20
17.37430555121198
 30
0.0
 10
-341.0952866443269
 20
11.32333984091917
 30
0.0
 10
-379.7134289957835
 20
3.533289929672233
 30
0.0
 10
-376.4047592917495
 20
-39.41533744674339
 30
0.0
 10
-375.3760537798539
 20
-52.76990558576586
 30
0.0
 10
-366.8704575363206
 20
-64.99310436743228
 30
0.0
 10
-350.6550821063466
 20
-66.22300345566647
 30
0.0
 10
-332.5462821976794
 20
-67.59621851608706
 30
0.0
 10
-322.5138196350834
 20
-59.93225909960027
 30
0.0
 10
-311.1491386483412
 20
-53.17229273844304
 30
0.0
 10
-310.8618176848714
 20
-46.16910263602717
 30
0.0
 10
-310.1479939003276
 20
-39.59310437378228
 30
0.0
 10
-309.7380275375829
 20
-32.71324868973836
 30
0.0
 10
-313.607214277067
 20
-33.63102212700891
 30
0.0
 10
-317.695509089413
 20
-37.93119031169776
 30
0.0
 10
-324.1998493655647
 20
-36.59380424432377
 30
0.0
 10
-333.2184203268517
 20
-34.73827581596821
 30
0.0
 10
-332.9217976055717
 20
-17.84490559449711
 30
0.0
 10
-327.3745048552224
 20
-11.19724934615902
 30
0.0
 10
-322.4831582852647
 20
-5.335074868457898
 30
0.0
 10
-314.1470607396056
 20
-5.022260198397213
 30
0.0
 10
-307.2692721128528
 20
-3.437516275182288
 30
0.0
 10
-307.1052855677549
 20
3.229432507873197
 30
0.0
 10
-304.8304890188445
 20
11.51144205441381
 30
0.0
 10
-306.2109387797841
 20
17.37430555121198
 30
0.0
 10
-306.3280720262826
 20
17.37430555121198
 30
0.0
 10
-306.4458942918781
 20
17.37430555121198
 30
0.0
 10
-306.5637165574736
 20
17.37430555121198
 30
0.0
  0
SPLINE
  5
57
330
1F
100
AcDbEntity
  8
Layer 1
 62
     7
420
 16777215
370
     9
100
AcDbSpline
210
0.0
220
0.0
230
1.0
 70
     8
 71
     3
 72
    17
 73
    13
 74
     0
 42
0.0000000001
 43
0.0000000001
 40
0.0
 40
0.0
 40
0.0
 40
0.0
 40
1.0
 40
1.0
 40
1.0
 40
2.0
 40
2.0
 40
2.0
 40
3.0
 40
3.0
 40
3.0
 40
4.0
 40
4.0
 40
4.0
 40
4.0
 10
-675.5224187221785
 20
-202.0252223887298
 30
0.0
 10
-155.5762057445261
 20
-202.0252223887298
 30
0.0
 10
363.2047036852405
 20
-202.0252223887298
 30
0.0
 10
883.207416228851
 20
-202.0252223887298
 30
0.0
 10
884.5448022962249
 20
-202.1079046803758
 30
0.0
 10
885.3233938758914
 20
-202.0259114078269
 30
0.0
 10
885.3233938758914
 20
-202.0259114078269
 30
0.0
 10
885.3220158376973
 20
-193.3380696131238
 30
0.0
 10
885.3220158376973
 20
-181.78459739379
 30
0.0
 10
885.3240828949885
 20
-173.4543565104559
 30
0.0
 10
365.377180898239
 20
-173.4543565104559
 30
0.0
 10
-155.520395197665
 20
-173.4543565104559
 30
0.0
 10
-675.5224187221785
 20
-173.4543565104559
 30
0.0
  0
SPLINE
  5
58
330
1F
100
AcDbEntity
  8
Layer 1
 62
     7
420
 16777215
370
     9
100
AcDbSpline
210
0.0
220
0.0
230
1.0
 70
    11
 71
     3
 72
    32
 73
    28
 74
     0
 42
0.0000000001
 43
0.0000000001
 40
0.0
 40
0.0
 40
0.0
 40
0.0
 40
1.0
 40
1.0
 40
1.0
 40
2.0
 40
2.0
 40
2.0
 40
3.0
 40
3.0
 40
3.0
 40
4.0
 40
4.0
 40
4.0
 40
5.0
 40
5.0
 40
5.0
 40
6.0
 40
6.0
 40
6.0
 40
7.0
 40
7.0
 40
7.0
 40
8.0
 40
8.0
 40
8.0
 40
9.0
 40
9.0
 40
9.0
 40
9.0
 10
668.3926213606796
 20
-266.2231987181664
 30
0.0
 10
667.3866534789867
 20
-274.9771863461863
 30
0.0
 10
666.4902396337247
 20
-283.84003899154
 30
0.0
 10
665.9231769168525
 20
-293.0308647270895
 30
0.0
 10
669.6590384610575
 20
-291.3193412900174
 30
0.0
 10
672.9360132866271
 20
-289.9102972365502
 30
0.0
 10
677.9162433201043
 20
-288.445442636222
 30
0.0
 10
681.3386011751514
 20
-287.438785735432
 30
0.0
 10
688.40655907269
 20
-284.7350747986079
 30
0.0
 10
692.0259763894935
 20
-286.3287759700845
 30
0.0
 10
697.4423555114033
 20
-288.7148491031685
 30
0.0
 10
694.9522404946647
 20
-305.2437282223002
 30
0.0
 10
694.4947318142235
 20
-313.1364419790075
 30
0.0
 10
692.819726389295
 20
-342.0373480047684
 30
0.0
 10
688.9584633694271
 20
-371.7940157490654
 30
0.0
 10
684.2655542994197
 20
-394.9705511165351
 30
0.0
 10
702.8532224805367
 20
-393.0998642680445
 30
0.0
 10
722.1574705225856
 20
-391.9457572804858
 30
0.0
 10
742.4663084081335
 20
-391.796240136426
 30
0.0
 10
741.6277721670236
 20
-341.8974771280673
 30
0.0
 10
747.4630748999398
 20
-292.6429469754504
 30
0.0
 10
754.1065970336956
 20
-247.8808213355993
 30
0.0
 10
752.6162487267766
 20
-246.7852809712898
 30
0.0
 10
751.4242456888801
 20
-245.3900172997636
 30
0.0
 10
749.5211749428281
 20
-244.7065103554901
 30
0.0
 10
724.188698820689
 20
-253.5893445546582
 30
0.0
 10
697.5305499558257
 20
-261.1458169920052
 30
0.0
 10
668.3926213606796
 20
-266.2231987181664
 30
0.0
  0
SPLINE
  5
59
330
1F
100
AcDbEntity
  8
Layer 1
 62
     7
420
 16777215
370
     9
100
AcDbSpline
210
0.0
220
0.0
230
1.0
 70
    11
 71
     3
 72
    32
 73
    28
 74
     0
 42
0.0000000001
 43
0.0000000001
 40
0.0
 40
0.0
 40
0.0
 40
0.0
 40
1.0
 40
1.0
 40
1.0
 40
2.0
 40
2.0
 40
2.0
 40
3.0
 40
3.0
 40
3.0
 40
4.0
 40
4.0
 40
4.0
 40
5.0
 40
5.0
 40
5.0
 40
6.0
 40
6.0
 40
6.0
 40
7.0
 40
7.0
 40
7.0
 40
8.0
 40
8.0
 40
8.0
 40
9.0
 40
9.0
 40
9.0
 40
9.0
 10
777.3871742848199
 20
-266.2231987181664
 30
0.0
 10
776.381895422224
 20
-274.9771863461863
 30
0.0
 10
775.485481576962
 20
-283.84003899154
 30
0.0
 10
774.9184188600899
 20
-293.0308647270895
 30
0.0
 10
778.6542804042948
 20
-291.3193412900174
 30
0.0
 10
781.9305662107674
 20
-289.9102972365502
 30
0.0
 10
786.9107962442446
 20
-288.445442636222
 30
0.0
 10
790.3331540992917
 20
-287.438785735432
 30
0.0
 10
797.4011119968303
 20
-284.7350747986079
 30
0.0
 10
801.0205293136338
 20
-286.3287759700845
 30
0.0
 10
806.4375974546406
 20
-288.7148491031685
 30
0.0
 10
803.9474824379021
 20
-305.2437282223002
 30
0.0
 10
803.4892847383638
 20
-313.1364419790075
 30
0.0
 10
801.8135902943383
 20
-342.0373480047684
 30
0.0
 10
797.9537053126644
 20
-371.7940157490654
 30
0.0
 10
793.26010722356
 20
-394.9705511165351
 30
0.0
 10
811.847775404677
 20
-393.0998642680445
 30
0.0
 10
831.1520234467259
 20
-391.9457572804858
 30
0.0
 10
851.4615503513708
 20
-391.796240136426
 30
0.0
 10
850.6223250911639
 20
-341.8974771280673
 30
0.0
 10
856.4583168431772
 20
-292.6429469754504
 30
0.0
 10
863.1018389769329
 20
-247.8808213355993
 30
0.0
 10
861.6108016509168
 20
-246.7852809712898
 30
0.0
 10
860.4187986130204
 20
-245.3900172997636
 30
0.0
 10
858.5157278669683
 20
-244.7065103554901
 30
0.0
 10
833.1839407639263
 20
-253.5893445546582
 30
0.0
 10
806.525102879966
 20
-261.1458169920052
 30
0.0
 10
777.3871742848199
 20
-266.2231987181664
 30
0.0
  0
SPLINE
  5
5A
330
1F
100
AcDbEntity
  8
Layer 1
 62
     7
420
 16777215
370
     9
100
AcDbSpline
210
0.0
220
0.0
230
1.0
 70
    11
 71
     3
 72
    50
 73
    46
 74
     0
 42
0.0000000001
 43
0.0000000001
 40
0.0
 40
0.0
 40
0.0
 40
0.0
 40
1.0
 40
1.0
 40
1.0
 40
2.0
 40
2.0
 40
2.0
 40
3.0
 40
3.0
 40
3.0
 40
4.0
 40
4.0
 40
4.0
 40
5.0
 40
5.0
 40
5.0
 40
6.0
 40
6.0
 40
6.0
 40
7.0
 40
7.0
 40
7.0
 40
8.0
 40
8.0
 40
8.0
 40
9.0
 40
9.0
 40
9.0
 40
10.0
 40
10.0
 40
10.0
 40
11.0
 40
11.0
 40
11.0
 40
12.0
 40
12.0
 40
12.0
 40
13.0
 40
13.0
 40
13.0
 40
14.0
 40
14.0
 40
14.0
 40
15.0
 40
15.0
 40
15.0
 40
15.0
 10
-230.7254516024749
 20
-330.4211750476031
 30
0.0
 10
-220.5675875642158
 20
-317.2002766134083
 30
0.0
 10
-210.8558633912965
 20
-301.6566948030581
 30
0.0
 10
-212.3834187294563
 20
-280.6857095652452
 30
0.0
 10
-215.6490247399246
 20
-235.8450357483304
 30
0.0
 10
-289.7526841181
 20
-244.7499185586042
 30
0.0
 10
-325.2581826986334
 20
-254.9363768893909
 30
0.0
 10
-326.3471773815209
 20
-269.9556151668861
 30
0.0
 10
-328.4114785962826
 20
-283.9992024029585
 30
0.0
 10
-330.1963825671905
 20
-298.3225313924333
 30
0.0
 10
-322.6712604987593
 20
-298.3225313924333
 30
0.0
 10
-315.1464829398766
 20
-298.3225313924333
 30
0.0
 10
-307.6213608714453
 20
-298.3225313924333
 30
0.0
 10
-306.6870509758456
 20
-283.122770111511
 30
0.0
 10
-297.8379787124329
 20
-270.8568521458275
 30
0.0
 10
-281.51959492745
 20
-271.5148653835102
 30
0.0
 10
-269.447635837586
 20
-272.0020018851245
 30
0.0
 10
-264.8887409819549
 20
-281.4987520997642
 30
0.0
 10
-266.3518730345405
 20
-294.0898870792553
 30
0.0
 10
-268.6800685634723
 20
-314.1293184978566
 30
0.0
 10
-284.6473971185083
 20
-329.6680771745275
 30
0.0
 10
-295.9817612649803
 20
-341.0031303400964
 30
0.0
 10
-309.82277688652
 20
-354.8448349807333
 30
0.0
 10
-325.5616956108839
 20
-364.1803547266633
 30
0.0
 10
-340.0731268138533
 20
-373.4538627538588
 30
0.0
 10
-338.9066174825477
 20
-379.9299532470314
 30
0.0
 10
-337.2226548093576
 20
-385.8885903983195
 30
0.0
 10
-336.1929157688164
 20
-392.5017956918051
 30
0.0
 10
-309.0100788615496
 20
-390.8012965602858
 30
0.0
 10
-274.4754081887596
 20
-391.796929155523
 30
0.0
 10
-244.482062384626
 20
-391.796240136426
 30
0.0
 10
-236.8528984325403
 20
-391.796240136426
 30
0.0
 10
-218.6552150603536
 20
-393.616628590832
 30
0.0
 10
-214.4997408860452
 20
-390.3851290256677
 30
0.0
 10
-211.4408406046919
 20
-388.0066351026512
 30
0.0
 10
-210.0138820547014
 20
-378.9715276830349
 30
0.0
 10
-208.8559854621089
 20
-374.8649738646171
 30
0.0
 10
-207.1027763696653
 20
-368.645198475547
 30
0.0
 10
-205.8191337918612
 20
-363.7276691799015
 30
0.0
 10
-204.2705633712414
 20
-358.2864853704978
 30
0.0
 10
-221.0412881934376
 20
-363.7380044663572
 30
0.0
 10
-240.8312946989068
 20
-366.1709308980406
 30
0.0
 10
-263.5299953225723
 20
-365.694129682882
 30
0.0
 10
-252.7323770527023
 20
-355.6068901020705
 30
0.0
 10
-241.1227497769589
 20
-343.9521320754703
 30
0.0
 10
-230.7254516024749
 20
-330.4211750476031
 30
0.0
  0
SPLINE
  5
5B
330
1F
100
AcDbEntity
  8
Layer 1
 62
     7
420
 16777215
370
     9
100
AcDbSpline
210
0.0
220
0.0
230
1.0
 70
    11
 71
     3
 72
    50
 73
    46
 74
     0
 42
0.0000000001
 43
0.0000000001
 40
0.0
 40
0.0
 40
0.0
 40
0.0
 40
1.0
 40
1.0
 40
1.0
 40
2.0
 40
2.0
 40
2.0
 40
3.0
 40
3.0
 40
3.0
 40
4.0
 40
4.0
 40
4.0
 40
5.0
 40
5.0
 40
5.0
 40
6.0
 40
6.0
 40
6.0
 40
7.0
 40
7.0
 40
7.0
 40
8.0
 40
8.0
 40
8.0
 40
9.0
 40
9.0
 40
9.0
 40
10.0
 40
10.0
 40
10.0
 40
11.0
 40
11.0
 40
11.0
 40
12.0
 40
12.0
 40
12.0
 40
13.0
 40
13.0
 40
13.0
 40
14.0
 40
14.0
 40
14.0
 40
15.0
 40
15.0
 40
15.0
 40
15.0
 10
-21.55441215823987
 20
-330.4211750476031
 30
0.0
 10
-11.39585910088367
 20
-317.2002766134083
 30
0.0
 10
-1.685512966158483
 20
-301.6566948030581
 30
0.0
 10
-3.212379285221211
 20
-280.6857095652452
 30
0.0
 10
-6.476951767043957
 20
-235.8450357483304
 30
0.0
 10
-80.58233369296205
 20
-244.7499185586042
 30
0.0
 10
-116.0871432543984
 20
-254.9363768893909
 30
0.0
 10
-117.1761379372858
 20
-269.9556151668861
 30
0.0
 10
-119.2404391520475
 20
-283.9992024029585
 30
0.0
 10
-121.0253431229555
 20
-298.3225313924333
 30
0.0
 10
-113.5002210545243
 20
-298.3225313924333
 30
0.0
 10
-105.9757880051901
 20
-298.3225313924333
 30
0.0
 10
-98.45032142721034
 20
-298.3225313924333
 30
0.0
 10
-97.51601153161059
 20
-283.122770111511
 30
0.0
 10
-88.66693926819785
 20
-270.8568521458275
 30
0.0
 10
-72.34821097366643
 20
-271.5148653835102
 30
0.0
 10
-60.27659639335099
 20
-272.0013128660275
 30
0.0
 10
-55.71735702817136
 20
-281.4987520997642
 30
0.0
 10
-57.18083359030549
 20
-294.0898870792553
 30
0.0
 10
-59.50971813833438
 20
-314.1293184978566
 30
0.0
 10
-75.47566865517622
 20
-329.6680771745275
 30
0.0
 10
-86.81072182074524
 20
-341.0031303400964
 30
0.0
 10
-100.6503594040909
 20
-354.8427679234421
 30
0.0
 10
-116.3913451857459
 20
-364.1810437457603
 30
0.0
 10
-130.9020873696182
 20
-373.4538627538588
 30
0.0
 10
-129.7355780383126
 20
-379.9299532470314
 30
0.0
 10
-128.0516153651225
 20
-385.8885903983195
 30
0.0
 10
-127.0218763245813
 20
-392.5017956918051
 30
0.0
 10
-99.83903941731455
 20
-390.8012965602858
 30
0.0
 10
-65.30436874452461
 20
-391.796929155523
 30
0.0
 10
-35.311022940391
 20
-391.796240136426
 30
0.0
 10
-27.68185898830523
 20
-391.796240136426
 30
0.0
 10
-9.483831106570015
 20
-393.616628590832
 30
0.0
 10
-5.328701441810186
 20
-390.3851290256677
 30
0.0
 10
-2.269801160456856
 20
-388.0059460835541
 30
0.0
 10
-0.8428426104663728
 20
-378.9715276830349
 30
0.0
 10
0.3150539821260976
 20
-374.8649738646171
 30
0.0
 10
2.068607584118265
 20
-368.645198475547
 30
0.0
 10
3.351905652373829
 20
-363.7276691799015
 30
0.0
 10
4.900820582542156
 20
-358.2864853704978
 30
0.0
 10
-11.86990423965405
 20
-363.7380044663572
 30
0.0
 10
-31.66025525467174
 20
-366.1709308980406
 30
0.0
 10
-54.35861136878882
 20
-365.694129682882
 30
0.0
 10
-43.5613376084673
 20
-355.6068901020705
 30
0.0
 10
-31.9520548422724
 20
-343.9521320754703
 30
0.0
 10
-21.55441215823987
 20
-330.4211750476031
 30
0.0
  0
SPLINE
  5
5C
330
1F
100
AcDbEntity
  8
Layer 1
 62
     7
420
 16777215
370
     9
100
AcDbSpline
210
0.0
220
0.0
230
1.0
 70
    11
 71
     3
 72
    50
 73
    46
 74
     0
 42
0.0000000001
 43
0.0000000001
 40
0.0
 40
0.0
 40
0.0
 40
0.0
 40
1.0
 40
1.0
 40
1.0
 40
2.0
 40
2.0
 40
2.0
 40
3.0
 40
3.0
 40
3.0
 40
4.0
 40
4.0
 40
4.0
 40
5.0
 40
5.0
 40
5.0
 40
6.0
 40
6.0
 40
6.0
 40
7.0
 40
7.0
 40
7.0
 40
8.0
 40
8.0
 40
8.0
 40
9.0
 40
9.0
 40
9.0
 40
10.0
 40
10.0
 40
10.0
 40
11.0
 40
11.0
 40
11.0
 40
12.0
 40
12.0
 40
12.0
 40
13.0
 40
13.0
 40
13.0
 40
14.0
 40
14.0
 40
14.0
 40
15.0
 40
15.0
 40
15.0
 40
15.0
 10
124.8302788316397
 20
-330.4211750476031
 30
0.0
 10
134.9884873794473
 20
-317.1995875943113
 30
0.0
 10
144.6988335141725
 20
-301.6566948030581
 30
0.0
 10
143.1719671951098
 20
-280.6857095652452
 30
0.0
 10
139.90670569419
 20
-235.8450357483304
 30
0.0
 10
65.80321857078879
 20
-244.7499185586042
 30
0.0
 10
30.29703097115838
 20
-254.9363768893909
 30
0.0
 10
29.20838079781943
 20
-269.9556151668861
 30
0.0
 10
27.14407958305773
 20
-283.9992024029585
 30
0.0
 10
25.35883110260126
 20
-298.3225313924333
 30
0.0
 10
32.88360866148396
 20
-298.3225313924333
 30
0.0
 10
40.40873072991518
 20
-298.3225313924333
 30
0.0
 10
47.9338527983464
 20
-298.3225313924333
 30
0.0
 10
48.86816269394615
 20
-283.122770111511
 30
0.0
 10
57.71757946690742
 20
-270.8568521458275
 30
0.0
 10
74.03596325189032
 20
-271.5148653835102
 30
0.0
 10
86.1082668513028
 20
-272.0020018851245
 30
0.0
 10
90.66612817828833
 20
-281.4987520997642
 30
0.0
 10
89.20334063525125
 20
-294.0898870792553
 30
0.0
 10
86.87583412541646
 20
-314.1286294787595
 30
0.0
 10
70.90850557038051
 20
-329.6687661936245
 30
0.0
 10
59.57414142390855
 20
-341.0031303400964
 30
0.0
 10
45.73243678327175
 20
-354.8441459616362
 30
0.0
 10
29.9938625684564
 20
-364.1803547266633
 30
0.0
 10
15.48243136548703
 20
-373.4538627538588
 30
0.0
 10
16.64928520634115
 20
-379.9299532470314
 30
0.0
 10
18.33290336998275
 20
-385.8885903983195
 30
0.0
 10
19.3622979009754
 20
-392.5017956918051
 30
0.0
 10
46.54547931779071
 20
-390.8012965602858
 30
0.0
 10
81.08014999058067
 20
-391.796929155523
 30
0.0
 10
111.07332353994
 20
-391.796240136426
 30
0.0
 10
118.7028320015743
 20
-391.796240136426
 30
0.0
 10
136.900515373761
 20
-393.616628590832
 30
0.0
 10
141.0553005289723
 20
-390.3851290256677
 30
0.0
 10
144.1145453198741
 20
-388.0066351026512
 30
0.0
 10
145.5421928889617
 20
-378.9715276830349
 30
0.0
 10
146.6990559529086
 20
-374.8649738646171
 30
0.0
 10
148.4526095549007
 20
-368.645198475547
 30
0.0
 10
149.7362521327048
 20
-363.7276691799015
 30
0.0
 10
151.2844780437761
 20
-358.2864853704978
 30
0.0
 10
134.5137532215799
 20
-363.7380044663572
 30
0.0
 10
114.7237467161107
 20
-366.1709308980406
 30
0.0
 10
92.02556285676792
 20
-365.694129682882
 30
0.0
 10
102.8228366170894
 20
-355.6062010829735
 30
0.0
 10
114.4322916380586
 20
-343.9528210945674
 30
0.0
 10
124.8302788316397
 20
-330.4211750476031
 30
0.0
  0
SPLINE
  5
5D
330
1F
100
AcDbEntity
  8
Layer 1
 62
     7
420
 16777215
370
     9
100
AcDbSpline
210
0.0
220
0.0
230
1.0
 70
    11
 71
     3
 72
    50
 73
    46
 74
     0
 42
0.0000000001
 43
0.0000000001
 40
0.0
 40
0.0
 40
0.0
 40
0.0
 40
1.0
 40
1.0
 40
1.0
 40
2.0
 40
2.0
 40
2.0
 40
3.0
 40
3.0
 40
3.0
 40
4.0
 40
4.0
 40
4.0
 40
5.0
 40
5.0
 40
5.0
 40
6.0
 40
6.0
 40
6.0
 40
7.0
 40
7.0
 40
7.0
 40
8.0
 40
8.0
 40
8.0
 40
9.0
 40
9.0
 40
9.0
 40
10.0
 40
10.0
 40
10.0
 40
11.0
 40
11.0
 40
11.0
 40
12.0
 40
12.0
 40
12.0
 40
13.0
 40
13.0
 40
13.0
 40
14.0
 40
14.0
 40
14.0
 40
15.0
 40
15.0
 40
15.0
 40
15.0
 10
271.2144530571964
 20
-330.4211750476031
 30
0.0
 10
281.3726616050041
 20
-317.1995875943113
 30
0.0
 10
291.0823187206322
 20
-301.6566948030581
 30
0.0
 10
289.5561414206665
 20
-280.6857095652452
 30
0.0
 10
286.2929469770379
 20
-235.8450357483304
 30
0.0
 10
212.1868760320227
 20
-244.7499185586042
 30
0.0
 10
176.6817219610379
 20
-254.9363768893909
 30
0.0
 10
175.5923827686019
 20
-269.9556151668861
 30
0.0
 10
173.5287705729372
 20
-283.9992024029585
 30
0.0
 10
171.7435220924808
 20
-298.3225313924333
 30
0.0
 10
179.2682996513635
 20
-298.3225313924333
 30
0.0
 10
186.7930772102462
 20
-298.3225313924333
 30
0.0
 10
194.3185437882259
 20
-298.3225313924333
 30
0.0
 10
195.2521646647286
 20
-283.122770111511
 30
0.0
 10
204.1019259472384
 20
-270.8568521458275
 30
0.0
 10
220.4206542417699
 20
-271.5148653835102
 30
0.0
 10
232.4922688220853
 20
-272.0020018851245
 30
0.0
 10
237.0508191681679
 20
-281.4987520997642
 30
0.0
 10
235.5880316251308
 20
-294.0898870792553
 30
0.0
 10
233.2598360961989
 20
-314.1286294787595
 30
0.0
 10
217.292507541163
 20
-329.6687661936245
 30
0.0
 10
205.958143394691
 20
-341.0031303400964
 30
0.0
 10
192.1171277731513
 20
-354.8441459616362
 30
0.0
 10
176.3785535583359
 20
-364.1803547266633
 30
0.0
 10
161.8664333362695
 20
-373.4538627538588
 30
0.0
 10
163.0336316866722
 20
-379.9299532470314
 30
0.0
 10
164.7169053407652
 20
-385.8885903983195
 30
0.0
 10
165.7469888908549
 20
-392.5017956918051
 30
0.0
 10
192.9301703076702
 20
-390.8012965602858
 30
0.0
 10
227.4644964709117
 20
-391.796929155523
 30
0.0
 10
257.4581867845938
 20
-391.796240136426
 30
0.0
 10
265.087006227131
 20
-391.796240136426
 30
0.0
 10
283.2846895993177
 20
-393.616628590832
 30
0.0
 10
287.4401637736261
 20
-390.3851290256677
 30
0.0
 10
290.4987195454309
 20
-388.0066351026512
 30
0.0
 10
291.9263671145184
 20
-378.9715276830349
 30
0.0
 10
293.0839191975624
 20
-374.8649738646171
 30
0.0
 10
294.8374727995545
 20
-368.645198475547
 30
0.0
 10
296.1211153773586
 20
-363.7276691799015
 30
0.0
 10
297.6693412884299
 20
-358.2864853704978
 30
0.0
 10
280.8986164662337
 20
-363.7380044663572
 30
0.0
 10
261.1086099607645
 20
-366.1709308980406
 30
0.0
 10
238.4102538466474
 20
-365.694129682882
 30
0.0
 10
249.2071830974204
 20
-355.6068901020705
 30
0.0
 10
260.8171548827124
 20
-343.9521320754703
 30
0.0
 10
271.2144530571964
 20
-330.4211750476031
 30
0.0
  0
SPLINE
  5
5E
330
1F
100
AcDbEntity
  8
Layer 1
 62
     7
420
 16777215
370
     9
100
AcDbSpline
210
0.0
220
0.0
230
1.0
 70
    11
 71
     3
 72
    50
 73
    46
 74
     0
 42
0.0000000001
 43
0.0000000001
 40
0.0
 40
0.0
 40
0.0
 40
0.0
 40
1.0
 40
1.0
 40
1.0
 40
2.0
 40
2.0
 40
2.0
 40
3.0
 40
3.0
 40
3.0
 40
4.0
 40
4.0
 40
4.0
 40
5.0
 40
5.0
 40
5.0
 40
6.0
 40
6.0
 40
6.0
 40
7.0
 40
7.0
 40
7.0
 40
8.0
 40
8.0
 40
8.0
 40
9.0
 40
9.0
 40
9.0
 40
10.0
 40
10.0
 40
10.0
 40
11.0
 40
11.0
 40
11.0
 40
12.0
 40
12.0
 40
12.0
 40
13.0
 40
13.0
 40
13.0
 40
14.0
 40
14.0
 40
14.0
 40
15.0
 40
15.0
 40
15.0
 40
15.0
 10
480.0327147237418
 20
-330.4211750476031
 30
0.0
 10
490.1916122906466
 20
-317.1988985752142
 30
0.0
 10
499.9005803871777
 20
-301.6573838221551
 30
0.0
 10
498.374403087212
 20
-280.6857095652452
 30
0.0
 10
495.1118976626804
 20
-235.8450357483304
 30
0.0
 10
421.0037596603741
 20
-244.7499185586042
 30
0.0
 10
385.4999836275833
 20
-254.9363768893909
 30
0.0
 10
384.4106444351473
 20
-269.9556151668861
 30
0.0
 10
382.3470322394827
 20
-283.9992024029585
 30
0.0
 10
380.5617837590262
 20
-298.3225313924333
 30
0.0
 10
388.0865613179089
 20
-298.3225313924333
 30
0.0
 10
395.6113388767916
 20
-298.3225313924333
 30
0.0
 10
403.1368054547714
 20
-298.3225313924333
 30
0.0
 10
404.0711153503711
 20
-283.122770111511
 30
0.0
 10
412.9201876137839
 20
-270.8568521458275
 30
0.0
 10
429.2389159083153
 20
-271.5148653835102
 30
0.0
 10
441.3112195077278
 20
-272.0020018851245
 30
0.0
 10
445.8690808347133
 20
-281.4987520997642
 30
0.0
 10
444.4062932916762
 20
-294.0898870792553
 30
0.0
 10
442.0780977627444
 20
-314.1286294787595
 30
0.0
 10
426.1114582268055
 20
-329.6687661936245
 30
0.0
 10
414.7770940803335
 20
-341.0031303400964
 30
0.0
 10
400.9347004205997
 20
-354.8441459616362
 30
0.0
 10
385.1968152248814
 20
-364.1803547266633
 30
0.0
 10
370.685384021912
 20
-373.4538627538588
 30
0.0
 10
371.8518933532176
 20
-379.9299532470314
 30
0.0
 10
373.5358560264077
 20
-385.8885903983195
 30
0.0
 10
374.5652505574004
 20
-392.5017956918051
 30
0.0
 10
401.7484319742157
 20
-390.8012965602858
 30
0.0
 10
436.2827581374571
 20
-391.796929155523
 30
0.0
 10
466.2764484511392
 20
-391.796240136426
 30
0.0
 10
473.9052678936765
 20
-391.796240136426
 30
0.0
 10
492.1036402849602
 20
-393.616628590832
 30
0.0
 10
496.2584254401715
 20
-390.3851290256677
 30
0.0
 10
499.3176702310734
 20
-388.0059460835541
 30
0.0
 10
500.7446287810639
 20
-378.9715276830349
 30
0.0
 10
501.9021808641078
 20
-374.8649738646171
 30
0.0
 10
503.6557344661
 20
-368.645198475547
 30
0.0
 10
504.9393770439041
 20
-363.7276691799015
 30
0.0
 10
506.4876029549753
 20
-358.2864853704978
 30
0.0
 10
489.7168781327791
 20
-363.7380044663572
 30
0.0
 10
469.92687162731
 20
-366.1709308980406
 30
0.0
 10
447.2285155131929
 20
-365.694129682882
 30
0.0
 10
458.0254447639659
 20
-355.6062010829735
 30
0.0
 10
469.6354165492579
 20
-343.9528210945674
 30
0.0
 10
480.0327147237418
 20
-330.4211750476031
 30
0.0
  0
SPLINE
  5
5F
330
1F
100
AcDbEntity
  8
Layer 1
 62
     7
420
 16777215
370
     9
100
AcDbSpline
210
0.0
220
0.0
230
1.0
 70
    11
 71
     3
 72
    50
 73
    46
 74
     0
 42
0.0000000001
 43
0.0000000001
 40
0.0
 40
0.0
 40
0.0
 40
0.0
 40
1.0
 40
1.0
 40
1.0
 40
2.0
 40
2.0
 40
2.0
 40
3.0
 40
3.0
 40
3.0
 40
4.0
 40
4.0
 40
4.0
 40
5.0
 40
5.0
 40
5.0
 40
6.0
 40
6.0
 40
6.0
 40
7.0
 40
7.0
 40
7.0
 40
8.0
 40
8.0
 40
8.0
 40
9.0
 40
9.0
 40
9.0
 40
10.0
 40
10.0
 40
10.0
 40
11.0
 40
11.0
 40
11.0
 40
12.0
 40
12.0
 40
12.0
 40
13.0
 40
13.0
 40
13.0
 40
14.0
 40
14.0
 40
14.0
 40
15.0
 40
15.0
 40
15.0
 40
15.0
 10
626.4168889492986
 20
-330.4211750476031
 30
0.0
 10
636.5757865162033
 20
-317.1995875943113
 30
0.0
 10
646.2854436318314
 20
-301.6573838221551
 30
0.0
 10
644.7592663318658
 20
-280.6857095652452
 30
0.0
 10
641.49538286914
 20
-235.8450357483304
 30
0.0
 10
567.389311924125
 20
-244.7499185586042
 30
0.0
 10
531.8841578531401
 20
-254.9363768893909
 30
0.0
 10
530.7955076798012
 20
-269.9556151668861
 30
0.0
 10
528.7312064650395
 20
-283.9992024029585
 30
0.0
 10
526.945957984583
 20
-298.3225313924333
 30
0.0
 10
534.4707355434657
 20
-298.3225313924333
 30
0.0
 10
541.9962021214454
 20
-298.3225313924333
 30
0.0
 10
549.5209796803281
 20
-298.3225313924333
 30
0.0
 10
550.4559785950249
 20
-283.122770111511
 30
0.0
 10
559.3050508584377
 20
-270.8568521458275
 30
0.0
 10
575.623090133872
 20
-271.5148653835102
 30
0.0
 10
587.6940156950905
 20
-272.0013128660275
 30
0.0
 10
592.2553221175611
 20
-281.4987520997642
 30
0.0
 10
590.79115653633
 20
-294.0898870792553
 30
0.0
 10
588.46020493101
 20
-314.1300075169536
 30
0.0
 10
572.4970104905564
 20
-329.6673881554304
 30
0.0
 10
561.1612683058903
 20
-341.0031303400964
 30
0.0
 10
547.3209417034476
 20
-354.8427679234421
 30
0.0
 10
531.580300431341
 20
-364.1817327648574
 30
0.0
 10
517.0695582474688
 20
-373.4538627538588
 30
0.0
 10
518.2367565978714
 20
-379.9299532470314
 30
0.0
 10
519.9200302519645
 20
-385.8885903983195
 30
0.0
 10
520.9494247829571
 20
-392.5017956918051
 30
0.0
 10
548.1326061997725
 20
-390.8012965602858
 30
0.0
 10
582.667621382111
 20
-391.796929155523
 30
0.0
 10
612.660622676696
 20
-391.796240136426
 30
0.0
 10
620.2894421192332
 20
-391.796240136426
 30
0.0
 10
638.4871254914199
 20
-393.616628590832
 30
0.0
 10
642.6425996657283
 20
-390.3851290256677
 30
0.0
 10
645.7018444566302
 20
-388.0059460835541
 30
0.0
 10
647.1288030066206
 20
-378.9715276830349
 30
0.0
 10
648.2863550896645
 20
-374.8649738646171
 30
0.0
 10
650.0399086916567
 20
-368.645198475547
 30
0.0
 10
651.3235512694608
 20
-363.7276691799015
 30
0.0
 10
652.871777180532
 20
-358.2864853704978
 30
0.0
 10
636.1010523583359
 20
-363.7380044663572
 30
0.0
 10
616.3110458528668
 20
-366.1709308980406
 30
0.0
 10
593.6126897387496
 20
-365.694129682882
 30
0.0
 10
604.4103080086197
 20
-355.6062010829735
 30
0.0
 10
616.0202797939116
 20
-343.9528210945674
 30
0.0
 10
626.4168889492986
 20
-330.4211750476031
 30
0.0
  0
SPLINE
  5
60
330
1F
100
AcDbEntity
  8
Layer 1
 62
     7
420
 16777215
370
     9
100
AcDbSpline
210
0.0
220
0.0
230
1.0
 70
    11
 71
     3
 72
    23
 73
    19
 74
     0
 42
0.0000000001
 43
0.0000000001
 40
0.0
 40
0.0
 40
0.0
 40
0.0
 40
1.0
 40
1.0
 40
1.0
 40
2.0
 40
2.0
 40
2.0
 40
3.0
 40
3.0
 40
3.0
 40
4.0
 40
4.0
 40
4.0
 40
5.0
 40
5.0
 40
5.0
 40
6.0
 40
6.0
 40
6.0
 40
6.0
 10
-650.8314193793929
 20
-317.016997533593
 30
0.0
 10
-655.0209999990052
 20
-364.8431910980253
 30
0.0
 10
-637.8399643045158
 20
-394.9677950401469
 30
0.0
 10
-591.2192096503724
 20
-394.265684580253
 30
0.0
 10
-590.806831720788
 20
-385.6246960841494
 30
0.0
 10
-589.7836383616687
 20
-377.593489488935
 30
0.0
 10
-589.4553207619244
 20
-368.8684406629912
 30
0.0
 10
-604.0029254674889
 20
-364.8204534678227
 30
0.0
 10
-602.1439519436481
 20
-333.4342555590026
 30
0.0
 10
-600.3900538321074
 20
-316.3121309973109
 30
0.0
 10
-598.5179889454226
 20
-298.0338323907693
 30
0.0
 10
-594.4727578266422
 20
-276.8044649915628
 30
0.0
 10
-579.9313542929513
 20
-272.2204209388893
 30
0.0
 10
-578.8065306170172
 20
-264.1740559235398
 30
0.0
 10
-578.0289725659962
 20
-255.7804252832771
 30
0.0
 10
-577.4619098491241
 20
-247.1759547993171
 30
0.0
 10
-623.2368935616387
 20
-248.3645127417283
 30
0.0
 10
-647.0104639767022
 20
-273.4027777094271
 30
0.0
 10
-650.8314193793929
 20
-317.016997533593
 30
0.0
  0
SPLINE
  5
61
330
1F
100
AcDbEntity
  8
Layer 1
 62
     7
420
 16777215
370
     9
100
AcDbSpline
210
0.0
220
0.0
230
1.0
 70
    11
 71
     3
 72
    32
 73
    28
 74
     0
 42
0.0000000001
 43
0.0000000001
 40
0.0
 40
0.0
 40
0.0
 40
0.0
 40
1.0
 40
1.0
 40
1.0
 40
2.0
 40
2.0
 40
2.0
 40
3.0
 40
3.0
 40
3.0
 40
4.0
 40
4.0
 40
4.0
 40
5.0
 40
5.0
 40
5.0
 40
6.0
 40
6.0
 40
6.0
 40
7.0
 40
7.0
 40
7.0
 40
8.0
 40
8.0
 40
8.0
 40
9.0
 40
9.0
 40
9.0
 40
9.0
 10
-566.5278657980382
 20
-248.2335991132888
 30
0.0
 10
-567.1824339402357
 20
-256.398475413331
 30
0.0
 10
-567.8941906674883
 20
-264.5040960710268
 30
0.0
 10
-568.6445324641757
 20
-272.5725096974819
 30
0.0
 10
-555.63171779729
 20
-276.4758028822699
 30
0.0
 10
-556.9394760434908
 20
-300.6093857755421
 30
0.0
 10
-557.7097993939927
 20
-318.4274196252543
 30
0.0
 10
-558.4236231785364
 20
-334.9321830759892
 30
0.0
 10
-561.119754905293
 20
-350.4833440964069
 30
0.0
 10
-566.1754325298972
 20
-359.6975964812562
 30
0.0
 10
-568.6135266048085
 20
-364.1410806381314
 30
0.0
 10
-572.771756855505
 20
-368.5377114964073
 30
0.0
 10
-578.5212767108385
 20
-368.5156628853017
 30
0.0
 10
-578.8830117367897
 20
-377.3254610601825
 30
0.0
 10
-579.9651162287066
 20
-385.4138562404521
 30
0.0
 10
-580.2848210897379
 20
-394.265684580253
 30
0.0
 10
-532.6784246172645
 20
-394.6019258996134
 30
0.0
 10
-510.1647256211568
 20
-365.4019855857329
 30
0.0
 10
-506.5635673104251
 20
-321.9551974021501
 30
0.0
 10
-504.5306164645792
 20
-297.4268065662683
 30
0.0
 10
-507.1557792243395
 20
-274.7635904261008
 30
0.0
 10
-521.378511425645
 20
-261.6370876082019
 30
0.0
 10
-531.2783378120589
 20
-252.5006943813193
 30
0.0
 10
-547.8588933634693
 20
-247.1793998948024
 30
0.0
 10
-566.1754325298972
 20
-247.174576761123
 30
0.0
 10
-566.5860879117389
 20
-247.2352104416634
 30
0.0
 10
-566.5581826383084
 20
-247.7333712488306
 30
0.0
 10
-566.5278657980382
 20
-248.2335991132888
 30
0.0
  0
SPLINE
  5
62
330
1F
100
AcDbEntity
  8
Layer 1
 62
     7
420
 16777215
370
     9
100
AcDbSpline
210
0.0
220
0.0
230
1.0
 70
    11
 71
     3
 72
    35
 73
    31
 74
     0
 42
0.0000000001
 43
0.0000000001
 40
0.0
 40
0.0
 40
0.0
 40
0.0
 40
1.0
 40
1.0
 40
1.0
 40
2.0
 40
2.0
 40
2.0
 40
3.0
 40
3.0
 40
3.0
 40
4.0
 40
4.0
 40
4.0
 40
5.0
 40
5.0
 40
5.0
 40
6.0
 40
6.0
 40
6.0
 40
7.0
 40
7.0
 40
7.0
 40
8.0
 40
8.0
 40
8.0
 40
9.0
 40
9.0
 40
9.0
 40
10.0
 40
10.0
 40
10.0
 40
10.0
 10
-471.289923656049
 20
-250.3502657794263
 30
0.0
 10
-472.7565008041199
 20
-269.2245659049161
 30
0.0
 10
-475.6279878910757
 20
-286.693956091521
 30
0.0
 10
-479.4027790142639
 20
-303.2600422418934
 30
0.0
 10
-471.289923656049
 20
-303.2600422418934
 30
0.0
 10
-463.1770682978342
 20
-303.2600422418934
 30
0.0
 10
-455.0642129396194
 20
-303.2600422418934
 30
0.0
 10
-453.1952486388714
 20
-282.2015515787552
 30
0.0
 10
-438.8112859688562
 20
-273.6577147753356
 30
0.0
 10
-413.441947325025
 20
-276.0995984552807
 30
0.0
 10
-431.1652410488927
 20
-316.6945365961736
 30
0.0
 10
-449.1155665652385
 20
-357.0641654923312
 30
0.0
 10
-469.5263792771497
 20
-394.9705511165351
 30
0.0
 10
-447.9146062790804
 20
-392.361924815104
 30
0.0
 10
-424.8221312414507
 20
-391.2333115341361
 30
0.0
 10
-401.4488809217732
 20
-390.3851290256677
 30
0.0
 10
-396.6095552936428
 20
-366.8916448735549
 30
0.0
 10
-387.5672131735075
 20
-346.0129881947468
 30
0.0
 10
-378.8738592260281
 20
-325.8350639376385
 30
0.0
 10
-370.1112588592951
 20
-305.4979762691116
 30
0.0
 10
-361.464069191318
 20
-285.6390678539375
 30
0.0
 10
-351.0078598840362
 20
-266.575976495856
 30
0.0
 10
-353.4190822141626
 20
-260.8743434677675
 30
0.0
 10
-356.0249524392056
 20
-255.3670138250471
 30
0.0
 10
-358.0627264187308
 20
-249.2919324463576
 30
0.0
 10
-393.8169608932993
 20
-251.5009276714998
 30
0.0
 10
-434.726091742447
 20
-251.1164550153459
 30
0.0
 10
-470.5847126102184
 20
-249.2919324463576
 30
0.0
 10
-471.0804618505459
 20
-249.3849500244593
 30
0.0
 10
-470.9864107437986
 20
-250.0650118732476
 30
0.0
 10
-471.289923656049
 20
-250.3502657794263
 30
0.0
  0
SPLINE
  5
63
330
1F
100
AcDbEntity
  8
Layer 1
 62
     7
420
 16777215
370
     9
100
AcDbSpline
210
0.0
220
0.0
230
1.0
 70
     8
 71
     3
 72
    17
 73
    13
 74
     0
 42
0.0000000001
 43
0.0000000001
 40
0.0
 40
0.0
 40
0.0
 40
0.0
 40
1.0
 40
1.0
 40
1.0
 40
2.0
 40
2.0
 40
2.0
 40
3.0
 40
3.0
 40
3.0
 40
4.0
 40
4.0
 40
4.0
 40
4.0
 10
-675.5224187221785
 20
-459.5219942427584
 30
0.0
 10
-155.5762057445261
 20
-459.5219942427584
 30
0.0
 10
363.2047036852405
 20
-459.5219942427584
 30
0.0
 10
883.207416228851
 20
-459.5219942427584
 30
0.0
 10
884.8886228256529
 20
-459.5488659875434
 30
0.0
 10
885.3233938758914
 20
-459.5219942427584
 30
0.0
 10
885.3233938758914
 20
-459.5219942427584
 30
0.0
 10
885.3220158376973
 20
-450.9884927257946
 30
0.0
 10
885.3220158376973
 20
-439.7988225897031
 30
0.0
 10
885.3240828949885
 20
-430.9504393453874
 30
0.0
 10
365.377180898239
 20
-430.9504393453874
 30
0.0
 10
-155.520395197665
 20
-430.9504393453874
 30
0.0
 10
-675.5224187221785
 20
-430.9504393453874
 30
0.0
  0
SPLINE
  5
64
330
1F
100
AcDbEntity
  8
Layer 1
 62
     7
420
 16777215
370
     9
100
AcDbSpline
210
0.0
220
0.0
230
1.0
 70
    11
 71
     3
 72
    50
 73
    46
 74
     0
 42
0.0000000001
 43
0.0000000001
 40
0.0
 40
0.0
 40
0.0
 40
0.0
 40
1.0
 40
1.0
 40
1.0
 40
2.0
 40
2.0
 40
2.0
 40
3.0
 40
3.0
 40
3.0
 40
4.0
 40
4.0
 40
4.0
 40
5.0
 40
5.0
 40
5.0
 40
6.0
 40
6.0
 40
6.0
 40
7.0
 40
7.0
 40
7.0
 40
8.0
 40
8.0
 40
8.0
 40
9.0
 40
9.0
 40
9.0
 40
10.0
 40
10.0
 40
10.0
 40
11.0
 40
11.0
 40
11.0
 40
12.0
 40
12.0
 40
12.0
 40
13.0
 40
13.0
 40
13.0
 40
14.0
 40
14.0
 40
14.0
 40
15.0
 40
15.0
 40
15.0
 40
15.0
 10
-282.9300170191112
 20
-585.095035661018
 30
0.0
 10
-287.2884073175009
 20
-581.3784666515304
 30
0.0
 10
-282.8428561033344
 20
-564.5223034613
 30
0.0
 10
-281.8716836860425
 20
-558.9929252074741
 30
0.0
 10
-281.1985120282247
 20
-555.1599119705851
 30
0.0
 10
-280.5174166507908
 20
-550.3354002530411
 30
0.0
 10
-279.7553615294535
 20
-545.5887476934639
 30
0.0
 10
-279.051528521817
 20
-541.2058972171291
 30
0.0
 10
-277.4943453624841
 20
-535.564897869581
 30
0.0
 10
-278.6970281963848
 20
-531.8324814208613
 30
0.0
 10
-281.9216375705786
 20
-521.8217229598224
 30
0.0
 10
-308.4068426420823
 20
-519.6058375437096
 30
0.0
 10
-322.0828381898786
 20
-521.2505261283679
 30
0.0
 10
-339.9415241663167
 20
-523.3975096347757
 30
0.0
 10
-356.3053832117049
 20
-522.6705944873879
 30
0.0
 10
-370.7599703391676
 20
-527.5991480885864
 30
0.0
 10
-371.0455687548949
 20
-533.662516142626
 30
0.0
 10
-372.2988944924288
 20
-538.7585013844076
 30
0.0
 10
-373.5818480511358
 20
-543.824858805016
 30
0.0
 10
-367.2421833391791
 20
-543.5988605411836
 30
0.0
 10
-361.6538939525553
 20
-544.1252711313298
 30
0.0
 10
-355.5925929558067
 20
-544.1776365827056
 30
0.0
 10
-349.5109658956952
 20
-535.703390708088
 30
0.0
 10
-338.8942151388007
 20
-530.6446124975472
 30
0.0
 10
-323.4936047910884
 20
-531.8324814208613
 30
0.0
 10
-318.8730427262714
 20
-532.1887042940361
 30
0.0
 10
-314.3399860867796
 20
-533.5929252138241
 30
0.0
 10
-312.9113049890465
 20
-536.7706812894185
 30
0.0
 10
-311.1567178584087
 20
-540.6732854551095
 30
0.0
 10
-312.9512680966754
 20
-546.5850693077982
 30
0.0
 10
-313.6168605444257
 20
-551.2325031174003
 30
0.0
 10
-315.1767997801468
 20
-562.1190048507897
 30
0.0
 10
-316.7532754741971
 20
-570.1729490762068
 30
0.0
 10
-318.2026271448417
 20
-580.5096135701503
 30
0.0
 10
-319.9113945055257
 20
-592.6921602250909
 30
0.0
 10
-320.1546182467843
 20
-599.6305825323841
 30
0.0
 10
-308.325882898179
 20
-600.6151908220685
 30
0.0
 10
-293.0506740261297
 20
-601.8864310561256
 30
0.0
 10
-276.4990572767954
 20
-597.2817164305407
 30
0.0
 10
-264.5872951269956
 20
-593.9131020650634
 30
0.0
 10
-264.6062431521644
 20
-590.2454534114664
 30
0.0
 10
-263.2960733391239
 20
-586.0369247666853
 30
0.0
 10
-264.234517349306
 20
-582.6255912171908
 30
0.0
 10
-268.330735881268
 20
-583.8665146109778
 30
0.0
 10
-278.2781045853784
 20
-589.0603405645405
 30
0.0
 10
-282.9300170191112
 20
-585.095035661018
 30
0.0
  0
SPLINE
  5
65
330
1F
100
AcDbEntity
  8
Layer 1
 62
     7
420
 16777215
370
     9
100
AcDbSpline
210
0.0
220
0.0
230
1.0
 70
    11
 71
     3
 72
    95
 73
    91
 74
     0
 42
0.0000000001
 43
0.0000000001
 40
0.0
 40
0.0
 40
0.0
 40
0.0
 40
1.0
 40
1.0
 40
1.0
 40
2.0
 40
2.0
 40
2.0
 40
3.0
 40
3.0
 40
3.0
 40
4.0
 40
4.0
 40
4.0
 40
5.0
 40
5.0
 40
5.0
 40
6.0
 40
6.0
 40
6.0
 40
7.0
 40
7.0
 40
7.0
 40
8.0
 40
8.0
 40
8.0
 40
9.0
 40
9.0
 40
9.0
 40
10.0
 40
10.0
 40
10.0
 40
11.0
 40
11.0
 40
11.0
 40
12.0
 40
12.0
 40
12.0
 40
13.0
 40
13.0
 40
13.0
 40
14.0
 40
14.0
 40
14.0
 40
15.0
 40
15.0
 40
15.0
 40
16.0
 40
16.0
 40
16.0
 40
17.0
 40
17.0
 40
17.0
 40
18.0
 40
18.0
 40
18.0
 40
19.0
 40
19.0
 40
19.0
 40
20.0
 40
20.0
 40
20.0
 40
21.0
 40
21.0
 40
21.0
 40
22.0
 40
22.0
 40
22.0
 40
23.0
 40
23.0
 40
23.0
 40
24.0
 40
24.0
 40
24.0
 40
25.0
 40
25.0
 40
25.0
 40
26.0
 40
26.0
 40
26.0
 40
27.0
 40
27.0
 40
27.0
 40
28.0
 40
28.0
 40
28.0
 40
29.0
 40
29.0
 40
29.0
 40
30.0
 40
30.0
 40
30.0
 40
30.0
 10
-191.9247191903001
 20
-523.7185925340009
 30
0.0
 10
-193.7409735301238
 20
-520.9225530381722
 30
0.0
 10
-200.4072332940822
 20
-520.934955381919
 30
0.0
 10
-205.3288967043102
 20
-521.2498371092709
 30
0.0
 10
-218.6069837235601
 20
-522.0987086368365
 30
0.0
 10
-234.5591538584609
 20
-526.76681301935
 30
0.0
 10
-244.129629116485
 20
-529.7151257356268
 30
0.0
 10
-244.4899861042421
 20
-533.0031248667492
 30
0.0
 10
-245.770872605658
 20
-537.2412813327036
 30
0.0
 10
-245.1879624495537
 20
-540.2970810281201
 30
0.0
 10
-240.8712578065357
 20
-539.867822130658
 30
0.0
 10
-231.2429049443594
 20
-534.9268661857127
 30
0.0
 10
-227.1983628446761
 20
-538.8859699173619
 30
0.0
 10
-224.7523450501487
 20
-541.2803112796105
 30
0.0
 10
-226.2258123891901
 20
-549.6208874494004
 30
0.0
 10
-226.8455850669865
 20
-554.7589028561019
 30
0.0
 10
-228.830304576039
 20
-571.2140569318493
 30
0.0
 10
-232.4438652305175
 20
-588.8391654343875
 30
0.0
 10
-235.311218202891
 20
-601.6728351360401
 30
0.0
 10
-223.9692748463515
 20
-599.493467732071
 30
0.0
 10
-212.4123575315323
 20
-597.5283852672846
 30
0.0
 10
-200.0375745485149
 20
-596.3818574897934
 30
0.0
 10
-199.5004841623645
 20
-579.399603804803
 30
0.0
 10
-196.6413994191556
 20
-564.7400334959679
 30
0.0
 10
-194.3938191245786
 20
-549.4679252098553
 30
0.0
 10
-189.8724758097368
 20
-546.5830022505071
 30
0.0
 10
-185.7817694305511
 20
-543.9082301157591
 30
0.0
 10
-179.9316527870483
 20
-541.355414361189
 30
0.0
 10
-175.748617848858
 20
-539.5295137540065
 30
0.0
 10
-166.9436428076565
 20
-535.4842826352261
 30
0.0
 10
-161.5892754044812
 20
-538.1804143619827
 30
0.0
 10
-156.2383530967911
 20
-540.8765460887392
 30
0.0
 10
-159.3158568937648
 20
-549.8613551142709
 30
0.0
 10
-160.1788533128199
 20
-556.1700139668603
 30
0.0
 10
-162.359598754983
 20
-572.1173609680818
 30
0.0
 10
-165.1146416145373
 20
-588.418863785187
 30
0.0
 10
-167.585808606107
 20
-601.6728351360401
 30
0.0
 10
-156.2838283571964
 20
-599.4535046244422
 30
0.0
 10
-144.5860066370306
 20
-597.629671074551
 30
0.0
 10
-132.312853970828
 20
-596.3818574897934
 30
0.0
 10
-133.0993692701106
 20
-579.5966632665592
 30
0.0
 10
-129.1109822268369
 20
-564.5505532442791
 30
0.0
 10
-127.0218763245813
 20
-549.4679252098553
 30
0.0
 10
-122.96286482386
 20
-546.8400063737067
 30
0.0
 10
-118.8315063179484
 20
-544.0853080237009
 30
0.0
 10
-113.6176988105713
 20
-541.7081921388785
 30
0.0
 10
-109.4718709036216
 20
-539.8182127556705
 30
0.0
 10
-102.3853094904627
 20
-536.5915363241854
 30
0.0
 10
-96.33365476107284
 20
-537.4755478257006
 30
0.0
 10
-87.84872909045102
 20
-538.7150931812935
 30
0.0
 10
-91.51327715811126
 20
-549.9047633173849
 30
0.0
 10
-92.80622149372553
 20
-556.8755695222395
 30
0.0
 10
-94.5267021790593
 20
-566.1525226449203
 30
0.0
 10
-96.10765649724046
 20
-574.0149195613574
 30
0.0
 10
-97.74476587183118
 20
-582.9776799757834
 30
0.0
 10
-99.49521888788662
 20
-592.5646916921366
 30
0.0
 10
-100.9156317564551
 20
-599.5251626105354
 30
0.0
 10
-91.74823267020531
 20
-600.6145018029714
 30
0.0
 10
-75.1580308514362
 20
-602.5885415160195
 30
0.0
 10
-59.81839869381277
 20
-596.7594399549769
 30
0.0
 10
-47.65652261178379
 20
-593.9124130459663
 30
0.0
 10
-47.30994600596765
 20
-590.142100546909
 30
0.0
 10
-45.30627847174635
 20
-586.1540580131838
 30
0.0
 10
-45.89263372333587
 20
-582.6249021980938
 30
0.0
 10
-49.24919025461479
 20
-583.6425834044366
 30
0.0
 10
-60.10261907134588
 20
-588.8384764152904
 30
0.0
 10
-63.88223332821347
 20
-584.7415688642313
 30
0.0
 10
-65.60788165677512
 20
-582.8715710348376
 30
0.0
 10
-64.26946206075556
 20
-576.0757756806339
 30
0.0
 10
-63.52945555052389
 20
-571.6901691279108
 30
0.0
 10
-61.66049124977585
 20
-560.6169432192208
 30
0.0
 10
-60.25523680134244
 20
-554.7113605384055
 30
0.0
 10
-58.23847790427719
 20
-545.2352808966773
 30
0.0
 10
-57.29383272222168
 20
-540.7966198734814
 30
0.0
 10
-55.60470240580369
 20
-535.784005942443
 30
0.0
 10
-56.12181123813969
 20
-531.4790146240747
 30
0.0
 10
-56.91039359471338
 20
-524.9167967437709
 30
0.0
 10
-63.25591496899505
 20
-521.8334362844722
 30
0.0
 10
-69.52598875214976
 20
-521.2498371092709
 30
0.0
 10
-91.72859562593938
 20
-519.1807127608298
 30
0.0
 10
-110.5005764155172
 20
-530.4950953534874
 30
0.0
 10
-124.9052096584438
 20
-536.0644367149423
 30
0.0
 10
-123.708383486868
 20
-526.0171602417596
 30
0.0
 10
-130.182062413201
 20
-521.8975150604979
 30
0.0
 10
-137.9566093947643
 20
-521.2498371092709
 30
0.0
 10
-158.5761948930817
 20
-519.5314234812283
 30
0.0
 10
-179.9898749007491
 20
-529.9514592859149
 30
0.0
 10
-192.2771524584412
 20
-536.0644367149423
 30
0.0
 10
-192.0539102709969
 20
-532.1494302055044
 30
0.0
 10
-189.8173542819727
 20
-526.9631834620093
 30
0.0
 10
-191.9247191903001
 20
-523.7185925340009
 30
0.0
  0
SPLINE
  5
66
330
1F
100
AcDbEntity
  8
Layer 1
 62
     7
420
 16777215
370
     9
100
AcDbSpline
210
0.0
220
0.0
230
1.0
 70
    11
 71
     3
 72
    32
 73
    28
 74
     0
 42
0.0000000001
 43
0.0000000001
 40
0.0
 40
0.0
 40
0.0
 40
0.0
 40
1.0
 40
1.0
 40
1.0
 40
2.0
 40
2.0
 40
2.0
 40
3.0
 40
3.0
 40
3.0
 40
4.0
 40
4.0
 40
4.0
 40
5.0
 40
5.0
 40
5.0
 40
6.0
 40
6.0
 40
6.0
 40
7.0
 40
7.0
 40
7.0
 40
8.0
 40
8.0
 40
8.0
 40
9.0
 40
9.0
 40
9.0
 40
9.0
 10
48.63940835372556
 20
-535.0061033818735
 30
0.0
 10
37.76737602137413
 20
-543.4279838051152
 30
0.0
 10
30.05931938267614
 20
-557.668630502944
 30
0.0
 10
31.70848659146524
 20
-575.2179469048067
 30
0.0
 10
34.87452934240984
 20
-608.9158038842294
 30
0.0
 10
95.79932045131059
 20
-603.0122882607053
 30
0.0
 10
122.7136121655022
 20
-593.2068574905873
 30
0.0
 10
123.3991861670669
 20
-588.7192761115008
 30
0.0
 10
123.8821885540989
 20
-584.0284340987846
 30
0.0
 10
124.8302788316397
 20
-579.8033689956742
 30
0.0
 10
112.0923827844769
 20
-586.1974662162979
 30
0.0
 10
84.13629419554579
 20
-594.4884330111001
 30
0.0
 10
71.91998560484987
 20
-582.2721244204042
 30
0.0
 10
60.28383109387002
 20
-570.6366589285215
 30
0.0
 10
69.32582870445674
 20
-544.4773598899224
 30
0.0
 10
80.38596325030282
 20
-537.122770048011
 30
0.0
 10
90.63891192395486
 20
-530.3042370636045
 30
0.0
 10
112.4616970204957
 20
-529.2045625847128
 30
0.0
 10
112.8372124283879
 20
-545.2352808966773
 30
0.0
 10
118.1219889027612
 20
-544.9941242127098
 30
0.0
 10
123.580398189591
 20
-544.9259113221019
 30
0.0
 10
128.710145367128
 20
-544.5297253412981
 30
0.0
 10
129.840825705387
 20
-536.9601615411073
 30
0.0
 10
131.5757757917588
 20
-529.9941784699321
 30
0.0
 10
133.6483452356852
 20
-523.3658147563114
 30
0.0
 10
102.0097940825705
 20
-518.8045083338405
 30
0.0
 10
67.82755667792159
 20
-520.1425834203116
 30
0.0
 10
48.63940835372556
 20
-535.0061033818735
 30
0.0
  0
SPLINE
  5
67
330
1F
100
AcDbEntity
  8
Layer 1
 62
     7
420
 16777215
370
     9
100
AcDbSpline
210
0.0
220
0.0
230
1.0
 70
    11
 71
     3
 72
    50
 73
    46
 74
     0
 42
0.0000000001
 43
0.0000000001
 40
0.0
 40
0.0
 40
0.0
 40
0.0
 40
1.0
 40
1.0
 40
1.0
 40
2.0
 40
2.0
 40
2.0
 40
3.0
 40
3.0
 40
3.0
 40
4.0
 40
4.0
 40
4.0
 40
5.0
 40
5.0
 40
5.0
 40
6.0
 40
6.0
 40
6.0
 40
7.0
 40
7.0
 40
7.0
 40
8.0
 40
8.0
 40
8.0
 40
9.0
 40
9.0
 40
9.0
 40
10.0
 40
10.0
 40
10.0
 40
11.0
 40
11.0
 40
11.0
 40
12.0
 40
12.0
 40
12.0
 40
13.0
 40
13.0
 40
13.0
 40
14.0
 40
14.0
 40
14.0
 40
15.0
 40
15.0
 40
15.0
 40
15.0
 10
568.2161348405849
 20
-585.095035661018
 30
0.0
 10
563.8574000326468
 20
-581.3784666515304
 30
0.0
 10
568.3036402659102
 20
-564.5223034613
 30
0.0
 10
569.2744681736536
 20
-558.9929252074741
 30
0.0
 10
569.9476398314714
 20
-555.1599119705851
 30
0.0
 10
570.6283906993568
 20
-550.3354002530411
 30
0.0
 10
571.3911348397911
 20
-545.5887476934639
 30
0.0
 10
572.0946233378792
 20
-541.2058972171291
 30
0.0
 10
573.6518064972121
 20
-535.564897869581
 30
0.0
 10
572.4487791537629
 20
-531.8324814208613
 30
0.0
 10
569.224169779569
 20
-521.8217229598224
 30
0.0
 10
542.7389647080653
 20
-519.6058375437096
 30
0.0
 10
529.0626246507205
 20
-521.2505261283679
 30
0.0
 10
511.2039386742824
 20
-523.3975096347757
 30
0.0
 10
494.8404241384427
 20
-522.6705944873879
 30
0.0
 10
480.3861815205285
 20
-527.5991480885864
 30
0.0
 10
480.1002385952527
 20
-533.662516142626
 30
0.0
 10
478.8469128577188
 20
-538.7585013844076
 30
0.0
 10
477.5639592990118
 20
-543.824858805016
 30
0.0
 10
483.9036240109685
 20
-543.5988605411836
 30
0.0
 10
489.4922579071409
 20
-544.1252711313298
 30
0.0
 10
495.5535589038894
 20
-544.1776365827056
 30
0.0
 10
501.6596461419462
 20
-535.7061467844762
 30
0.0
 10
512.2092175368783
 20
-530.6411674020619
 30
0.0
 10
527.6515135399621
 20
-531.8324814208613
 30
0.0
 10
532.2727646238762
 20
-532.1887042940361
 30
0.0
 10
536.8051322442709
 20
-533.5929252138241
 30
0.0
 10
538.2341578515526
 20
-536.7706812894185
 30
0.0
 10
539.9890894917388
 20
-540.6732854551095
 30
0.0
 10
538.1948837630207
 20
-546.5850693077982
 30
0.0
 10
537.5286022961734
 20
-551.2325031174003
 30
0.0
 10
535.9686630604523
 20
-562.1190048507897
 30
0.0
 10
534.392187366402
 20
-570.1729490762068
 30
0.0
 10
532.9431802053059
 20
-580.5096135701503
 30
0.0
 10
531.235101863719
 20
-592.6921602250909
 30
0.0
 10
530.9905000842663
 20
-599.6305825323841
 30
0.0
 10
542.8195799424201
 20
-600.6151908220685
 30
0.0
 10
558.0944443049209
 20
-601.8864310561256
 30
0.0
 10
574.6460610542551
 20
-597.2817164305407
 30
0.0
 10
586.5585122231521
 20
-593.9131020650634
 30
0.0
 10
586.5385306693377
 20
-590.2454534114664
 30
0.0
 10
587.8497340110237
 20
-586.0369247666853
 30
0.0
 10
586.9112900008416
 20
-582.6255912171908
 30
0.0
 10
582.8157604879766
 20
-583.8665146109778
 30
0.0
 10
572.8677027647692
 20
-589.0610295836375
 30
0.0
 10
568.2161348405849
 20
-585.095035661018
 30
0.0
  0
SPLINE
  5
68
330
1F
100
AcDbEntity
  8
Layer 1
 62
     7
420
 16777215
370
     9
100
AcDbSpline
210
0.0
220
0.0
230
1.0
 70
    11
 71
     3
 72
    26
 73
    22
 74
     0
 42
0.0000000001
 43
0.0000000001
 40
0.0
 40
0.0
 40
0.0
 40
0.0
 40
1.0
 40
1.0
 40
1.0
 40
2.0
 40
2.0
 40
2.0
 40
3.0
 40
3.0
 40
3.0
 40
4.0
 40
4.0
 40
4.0
 40
5.0
 40
5.0
 40
5.0
 40
6.0
 40
6.0
 40
6.0
 40
7.0
 40
7.0
 40
7.0
 40
7.0
 10
144.9358560835577
 20
-574.1603025908349
 30
0.0
 10
146.7727809962929
 20
-596.2164929065015
 30
0.0
 10
167.4702256525769
 20
-600.1356335305217
 30
0.0
 10
192.2018771220884
 20
-600.6151908220685
 30
0.0
 10
193.065218050692
 20
-597.0095538872059
 30
0.0
 10
193.6371039012435
 20
-593.1138399124854
 30
0.0
 10
194.3185437882259
 20
-589.3276799741959
 30
0.0
 10
188.3006509945915
 20
-588.7537270663532
 30
0.0
 10
184.0066839817761
 20
-585.7558049750888
 30
0.0
 10
181.9726996072846
 20
-581.5679469032192
 30
0.0
 10
174.5884819442001
 20
-566.3612954313264
 30
0.0
 10
183.7903319853024
 20
-542.3717175293376
 30
0.0
 10
195.3761881021976
 20
-535.7123479563497
 30
0.0
 10
197.9400281623205
 20
-534.2392251268569
 30
0.0
 10
200.8359754272216
 20
-533.4613225662874
 30
0.0
 10
203.1366101922714
 20
-532.8901257348331
 30
0.0
 10
203.3694986470743
 20
-528.890369876458
 30
0.0
 10
204.4188747318814
 20
-525.7071016480871
 30
0.0
 10
204.5477213030297
 20
-521.6026148869605
 30
0.0
 10
172.4614799916069
 20
-523.0626463536094
 30
0.0
 10
141.9758300426311
 20
-538.6186305077065
 30
0.0
 10
144.9358560835577
 20
-574.1603025908349
 30
0.0
  0
SPLINE
  5
69
330
1F
100
AcDbEntity
  8
Layer 1
 62
     7
420
 16777215
370
     9
100
AcDbSpline
210
0.0
220
0.0
230
1.0
 70
    11
 71
     3
 72
    23
 73
    19
 74
     0
 42
0.0000000001
 43
0.0000000001
 40
0.0
 40
0.0
 40
0.0
 40
0.0
 40
1.0
 40
1.0
 40
1.0
 40
2.0
 40
2.0
 40
2.0
 40
3.0
 40
3.0
 40
3.0
 40
4.0
 40
4.0
 40
4.0
 40
5.0
 40
5.0
 40
5.0
 40
6.0
 40
6.0
 40
6.0
 40
6.0
 10
213.7192545038619
 20
-533.2422144934255
 30
0.0
 10
223.0092989893866
 20
-533.3379881479156
 30
0.0
 10
227.220583710556
 20
-541.3388779028597
 30
0.0
 10
227.8282985541541
 20
-549.8207029875449
 30
0.0
 10
229.1264105329962
 20
-567.9460393545413
 30
0.0
 10
221.6491752918099
 20
-587.9785805821721
 30
0.0
 10
204.9004990807193
 20
-589.3269909550988
 30
0.0
 10
204.4319660947253
 20
-593.2089245478784
 30
0.0
 10
203.8841959125706
 20
-597.0116209444972
 30
0.0
 10
203.1366101922714
 20
-600.6145018029714
 30
0.0
 10
236.5381889599627
 20
-599.8882756746807
 30
0.0
 10
265.7532876939783
 20
-584.006385487679
 30
0.0
 10
262.0429198563643
 20
-548.057503118194
 30
0.0
 10
259.8793998916274
 20
-527.0899629758665
 30
0.0
 10
239.5092393064421
 20
-521.8127657115607
 30
0.0
 10
215.8352321509023
 20
-521.6019258678634
 30
0.0
 10
214.8685383577412
 20
-525.2213431846669
 30
0.0
 10
214.272536838793
 20
-529.2107637565862
 30
0.0
 10
213.7192545038619
 20
-533.2422144934255
 30
0.0
  0
SPLINE
  5
6A
330
1F
100
AcDbEntity
  8
Layer 1
 62
     7
420
 16777215
370
     9
100
AcDbSpline
210
0.0
220
0.0
230
1.0
 70
    11
 71
     3
 72
    41
 73
    37
 74
     0
 42
0.0000000001
 43
0.0000000001
 40
0.0
 40
0.0
 40
0.0
 40
0.0
 40
1.0
 40
1.0
 40
1.0
 40
2.0
 40
2.0
 40
2.0
 40
3.0
 40
3.0
 40
3.0
 40
4.0
 40
4.0
 40
4.0
 40
5.0
 40
5.0
 40
5.0
 40
6.0
 40
6.0
 40
6.0
 40
7.0
 40
7.0
 40
7.0
 40
8.0
 40
8.0
 40
8.0
 40
9.0
 40
9.0
 40
9.0
 40
10.0
 40
10.0
 40
10.0
 40
11.0
 40
11.0
 40
11.0
 40
12.0
 40
12.0
 40
12.0
 40
12.0
 10
383.3840059805429
 20
-589.3276799741959
 30
0.0
 10
407.0731715562179
 20
-570.2191133557092
 30
0.0
 10
429.6461261946718
 20
-549.9936467809044
 30
0.0
 10
448.6396266239512
 20
-526.188036977828
 30
0.0
 10
447.8693032734494
 20
-525.0773381933834
 30
0.0
 10
446.7820311383045
 20
-524.2835881935819
 30
0.0
 10
446.1701821801241
 20
-523.0130369786218
 30
0.0
 10
416.5154892621906
 20
-522.8083983067979
 30
0.0
 10
382.6453775085054
 20
-523.139816492479
 30
0.0
 10
353.048562194724
 20
-523.0130369786218
 30
0.0
 10
349.6689235236939
 20
-529.5097980447059
 30
0.0
 10
347.670768142249
 20
-537.3880424003752
 30
0.0
 10
344.5832735683681
 20
-544.1769475636086
 30
0.0
 10
349.5214734369252
 20
-544.1769475636086
 30
0.0
 10
354.4596733054823
 20
-544.1769475636086
 30
0.0
 10
359.3978731740394
 20
-544.1769475636086
 30
0.0
 10
364.5358885807411
 20
-529.5621634960817
 30
0.0
 10
388.2098957362809
 20
-533.4833711773931
 30
0.0
 10
406.6638942125701
 20
-532.1845701794539
 30
0.0
 10
386.019504026759
 20
-556.3374456074434
 30
0.0
 10
361.722623607486
 20
-576.837141782874
 30
0.0
 10
335.0589625898464
 20
-594.9714353981321
 30
0.0
 10
336.1338323812444
 20
-596.8359210747494
 30
0.0
 10
336.9034667126492
 20
-599.0056422113597
 30
0.0
 10
338.5860513476452
 20
-600.2624130443788
 30
0.0
 10
365.3689126690745
 20
-597.9238822289913
 30
0.0
 10
403.9105739007585
 20
-600.9307615685174
 30
0.0
 10
431.0028047967632
 20
-599.9096352666893
 30
0.0
 10
437.4409992395981
 20
-599.6664115254307
 30
0.0
 10
438.1141708974159
 20
-596.3853025852787
 30
0.0
 10
440.1736489784982
 20
-591.7971244180229
 30
0.0
 10
441.4207735441587
 20
-589.0189994187175
 30
0.0
 10
443.1329860003279
 20
-586.4634275877592
 30
0.0
 10
442.9951821809179
 20
-584.0367023279492
 30
0.0
 10
426.1472872198521
 20
-588.5862954257701
 30
0.0
 10
403.4813150032963
 20
-589.2009004603387
 30
0.0
 10
383.3840059805429
 20
-589.3276799741959
 30
0.0
  0
SPLINE
  5
6B
330
1F
100
AcDbEntity
  8
Layer 1
 62
     7
420
 16777215
370
     9
100
AcDbSpline
210
0.0
220
0.0
230
1.0
 70
    11
 71
     3
 72
    26
 73
    22
 74
     0
 42
0.0000000001
 43
0.0000000001
 40
0.0
 40
0.0
 40
0.0
 40
0.0
 40
1.0
 40
1.0
 40
1.0
 40
2.0
 40
2.0
 40
2.0
 40
3.0
 40
3.0
 40
3.0
 40
4.0
 40
4.0
 40
4.0
 40
5.0
 40
5.0
 40
5.0
 40
6.0
 40
6.0
 40
6.0
 40
7.0
 40
7.0
 40
7.0
 40
7.0
 10
-324.5526271432542
 20
-553.3484807644406
 30
0.0
 10
-343.0400430457504
 20
-555.3135632292272
 30
0.0
 10
-372.5538315583373
 20
-557.9759330202282
 30
0.0
 10
-383.4592813168956
 20
-569.5741914808704
 30
0.0
 10
-387.1148721362942
 20
-573.4616372264263
 30
0.0
 10
-390.297451345568
 20
-581.9675779795082
 30
0.0
 10
-387.6922701396221
 20
-588.9742131774093
 30
0.0
 10
-381.023598808824
 20
-606.9080022354258
 30
0.0
 10
-344.6234089307712
 20
-600.7419703359257
 30
0.0
 10
-329.8439492990494
 20
-593.2068574905873
 30
0.0
 10
-329.7423189822346
 20
-589.8961207292621
 30
0.0
 10
-328.4125121249281
 20
-585.9432181694865
 30
0.0
 10
-329.1383937436703
 20
-582.9776799757834
 30
0.0
 10
-336.0447766629507
 20
-587.4528590111229
 30
0.0
 10
-354.1863049787277
 20
-590.3612086197709
 30
0.0
 10
-355.5936264844523
 20
-580.1561467733637
 30
0.0
 10
-357.5604314969814
 20
-565.8906953880412
 30
0.0
 10
-338.6664943272257
 20
-564.5023219074856
 30
0.0
 10
-325.9637382540125
 20
-563.5776582792445
 30
0.0
 10
-325.2843654243213
 20
-560.6086749900562
 30
0.0
 10
-324.5037067873637
 20
-555.8702906596436
 30
0.0
 10
-324.5526271432542
 20
-553.3484807644406
 30
0.0
  0
SPLINE
  5
6C
330
1F
100
AcDbEntity
  8
Layer 1
 62
     7
420
 16777215
370
     9
100
AcDbSpline
210
0.0
220
0.0
230
1.0
 70
    11
 71
     3
 72
    26
 73
    22
 74
     0
 42
0.0000000001
 43
0.0000000001
 40
0.0
 40
0.0
 40
0.0
 40
0.0
 40
1.0
 40
1.0
 40
1.0
 40
2.0
 40
2.0
 40
2.0
 40
3.0
 40
3.0
 40
3.0
 40
4.0
 40
4.0
 40
4.0
 40
5.0
 40
5.0
 40
5.0
 40
6.0
 40
6.0
 40
6.0
 40
7.0
 40
7.0
 40
7.0
 40
7.0
 10
526.5938692259905
 20
-553.3484807644406
 30
0.0
 10
508.1067978330428
 20
-555.3135632292272
 30
0.0
 10
478.5926648109074
 20
-557.9752440011312
 30
0.0
 10
467.6875595618976
 20
-569.5741914808704
 30
0.0
 10
464.0323132520475
 20
-573.4616372264263
 30
0.0
 10
460.8497340427737
 20
-581.9675779795082
 30
0.0
 10
463.4549152487196
 20
-588.9742131774093
 30
0.0
 10
470.1232420699692
 20
-606.9080022354258
 30
0.0
 10
506.524120967119
 20
-600.7419703359257
 30
0.0
 10
521.3028915797438
 20
-593.2068574905873
 30
0.0
 10
521.4048664061071
 20
-589.8961207292621
 30
0.0
 10
522.7346732634136
 20
-585.9432181694865
 30
0.0
 10
522.0084471351229
 20
-582.9776799757834
 30
0.0
 10
515.1003416681
 20
-587.454237049317
 30
0.0
 10
496.9591578618713
 20
-590.3591415624796
 30
0.0
 10
495.5535589038894
 20
-580.1561467733637
 30
0.0
 10
493.5870984009088
 20
-565.8906953880412
 30
0.0
 10
512.4800020420189
 20
-564.5030109265826
 30
0.0
 10
525.1827581152321
 20
-563.5776582792445
 30
0.0
 10
525.8621309449234
 20
-560.6086749900562
 30
0.0
 10
526.642789581881
 20
-555.8702906596436
 30
0.0
 10
526.5938692259905
 20
-553.3484807644406
 30
0.0
  0
SPLINE
  5
6D
330
1F
100
AcDbEntity
  8
Layer 1
 62
     7
420
 16777215
370
     9
100
AcDbSpline
210
0.0
220
0.0
230
1.0
 70
    11
 71
     3
 72
    14
 73
    10
 74
     0
 42
0.0000000001
 43
0.0000000001
 40
0.0
 40
0.0
 40
0.0
 40
0.0
 40
1.0
 40
1.0
 40
1.0
 40
2.0
 40
2.0
 40
2.0
 40
3.0
 40
3.0
 40
3.0
 40
3.0
 10
-25.78740098096635
 20
-586.8589245494659
 30
0.0
 10
-31.6306274334986
 20
-604.7052081821571
 30
0.0
 10
6.18825276538002
 20
-603.9982745885837
 30
0.0
 10
9.48624267340969
 20
-592.5026799734021
 30
0.0
 10
13.13976643551714
 20
-579.7668509835305
 30
0.0
 10
-1.624190266521036
 20
-578.2124239005858
 30
0.0
 10
-12.38322346695628
 20
-579.4512802370816
 30
0.0
 10
-19.44119058758762
 20
-580.2629447334065
 30
0.0
 10
-24.45793863320843
 20
-582.7964679532593
 30
0.0
 10
-25.78740098096635
 20
-586.8589245494659
 30
0.0
  0
SPLINE
  5
6E
330
1F
100
AcDbEntity
  8
Layer 1
 62
     7
420
 16777215
370
     9
100
AcDbSpline
210
0.0
220
0.0
230
1.0
 70
    11
 71
     3
 72
    14
 73
    10
 74
     0
 42
0.0000000001
 43
0.0000000001
 40
0.0
 40
0.0
 40
0.0
 40
0.0
 40
1.0
 40
1.0
 40
1.0
 40
2.0
 40
2.0
 40
2.0
 40
3.0
 40
3.0
 40
3.0
 40
3.0
 10
284.971408348896
 20
-586.8589245494659
 30
0.0
 10
279.1285264059123
 20
-604.7052081821571
 30
0.0
 10
316.947406604791
 20
-603.9982745885837
 30
0.0
 10
320.244362984175
 20
-592.5026799734021
 30
0.0
 10
323.897542236734
 20
-579.7668509835305
 30
0.0
 10
309.1353080824384
 20
-578.2124239005858
 30
0.0
 10
298.374896843809
 20
-579.4512802370816
 30
0.0
 10
291.3172742327263
 20
-580.2629447334065
 30
0.0
 10
286.3005261871054
 20
-582.7964679532593
 30
0.0
 10
284.971408348896
 20
-586.8589245494659
 30
0.0
  0
ENDSEC
  0
SECTION
  2
OBJECTS
  0
DICTIONARY
  5
C
330
0
100
AcDbDictionary
281
     1
  3
ACAD_GROUP
350
D
  3
ACAD_LAYOUT
350
1A
  3
ACAD_MLINESTYLE
350
17
  3
ACAD_PLOTSETTINGS
350
19
  3
ACAD_PLOTSTYLENAME
350
E
  3
ACAD_TABLESTYLE
350
6F
  3
ACAD_VISUALSTYLE
350
2A
  0
DICTIONARY
  5
D
102
{ACAD_REACTORS
330
C
102
}
330
C
100
AcDbDictionary
281
     1
  0
DICTIONARY
  5
1A
102
{ACAD_REACTORS
330
C
102
}
330
C
100
AcDbDictionary
281
     1
  3
Layout1
350
1E
  3
Layout2
350
26
  3
Model
350
22
  0
DICTIONARY
  5
17
102
{ACAD_REACTORS
330
C
102
}
330
C
100
AcDbDictionary
281
     1
  3
Standard
350
18
  0
DICTIONARY
  5
19
102
{ACAD_REACTORS
330
C
102
}
330
C
100
AcDbDictionary
281
     1
  0
ACDBDICTIONARYWDFLT
  5
E
102
{ACAD_REACTORS
330
C
102
}
330
C
100
AcDbDictionary
281
     1
  3
Normal
350
F
100
AcDbDictionaryWithDefault
340
F
  0
DICTIONARY
  5
6F
102
{ACAD_REACTORS
330
C
102
}
330
C
100
AcDbDictionary
281
     1
  0
DICTIONARY
  5
2A
102
{ACAD_REACTORS
330
C
102
}
330
C
100
AcDbDictionary
281
     1
  3
2dWireframe
350
2F
  3
3D Hidden
350
31
  3
3dWireframe
350
30
  3
Basic
350
32
  3
Brighten
350
36
  3
ColorChange
350
3A
  3
Conceptual
350
34
  3
Dim
350
35
  3
Facepattern
350
39
  3
Flat
350
2B
  3
FlatWithEdges
350
2C
  3
Gouraud
350
2D
  3
GouraudWithEdges
350
2E
  3
Linepattern
350
38
  3
Realistic
350
33
  3
Thicken
350
37
  0
LAYOUT
  5
1E
102
{ACAD_REACTORS
330
1A
102
}
330
1A
100
AcDbPlotSettings
  1

  2
none_device
  4

  6

 40
0.0
 41
0.0
 42
0.0
 43
0.0
 44
0.0
 45
0.0
 46
0.0
 47
0.0
 48
0.0
 49
0.0
140
0.0
141
0.0
142
1.0
143
1.0
 70
   688
 72
     0
 73
     0
 74
     5
  7

 75
    16
 76
     0
 77
     2
 78
   300
147
1.0
148
0.0
149
0.0
100
AcDbLayout
  1
Layout1
 70
     1
 71
     1
 10
0.0
 20
0.0
 11
12.0
 21
9.0
 12
0.0
 22
0.0
 32
0.0
 14
1.000000000000000E+20
 24
1.000000000000000E+20
 34
1.000000000000000E+20
 15
-1.000000000000000E+20
 25
-1.000000000000000E+20
 35
-1.000000000000000E+20
146
0.0
 13
0.0
 23
0.0
 33
0.0
 16
1.0
 26
0.0
 36
0.0
 17
0.0
 27
1.0
 37
0.0
 76
     0
330
1B
  0
LAYOUT
  5
26
102
{ACAD_REACTORS
330
1A
102
}
330
1A
100
AcDbPlotSettings
  1

  2
none_device
  4

  6

 40
0.0
 41
0.0
 42
0.0
 43
0.0
 44
0.0
 45
0.0
 46
0.0
 47
0.0
 48
0.0
 49
0.0
140
0.0
141
0.0
142
1.0
143
1.0
 70
   688
 72
     0
 73
     0
 74
     5
  7

 75
    16
 76
     0
 77
     2
 78
   300
147
1.0
148
0.0
149
0.0
100
AcDbLayout
  1
Layout2
 70
     1
 71
     2
 10
0.0
 20
0.0
 11
0.0
 21
0.0
 12
0.0
 22
0.0
 32
0.0
 14
0.0
 24
0.0
 34
0.0
 15
0.0
 25
0.0
 35
0.0
146
0.0
 13
0.0
 23
0.0
 33
0.0
 16
1.0
 26
0.0
 36
0.0
 17
0.0
 27
1.0
 37
0.0
 76
     0
330
23
  0
LAYOUT
  5
22
102
{ACAD_REACTORS
330
1A
102
}
330
1A
100
AcDbPlotSettings
  1

  2
none_device
  4

  6

 40
0.0
 41
0.0
 42
0.0
 43
0.0
 44
0.0
 45
0.0
 46
0.0
 47
0.0
 48
0.0
 49
0.0
140
0.0
141
0.0
142
1.0
143
1.0
 70
  1712
 72
     0
 73
     0
 74
     0
  7

 75
     0
 76
     0
 77
     2
 78
   300
147
1.0
148
0.0
149
0.0
100
AcDbLayout
  1
Model
 70
     1
 71
     0
 10
0.0
 20
0.0
 11
12.0
 21
9.0
 12
0.0
 22
0.0
 32
0.0
 14
1.000000000000000E+20
 24
1.000000000000000E+20
 34
1.000000000000000E+20
 15
-1.000000000000000E+20
 25
-1.000000000000000E+20
 35
-1.000000000000000E+20
146
0.0
 13
0.0
 23
0.0
 33
0.0
 16
1.0
 26
0.0
 36
0.0
 17
0.0
 27
1.0
 37
0.0
 76
     0
330
1F
331
29
  0
MLINESTYLE
  5
18
102
{ACAD_REACTORS
330
17
102
}
330
17
100
AcDbMlineStyle
  2
Standard
 70
     0
  3

 62
   256
 51
90.0
 52
90.0
 71
     2
 49
0.5
 62
   256
  6
BYLAYER
 49
-0.5
 62
   256
  6
BYLAYER
  0
ACDBPLACEHOLDER
  5
F
102
{ACAD_REACTORS
330
E
102
}
330
E
  0
VISUALSTYLE
  5
2F
102
{ACAD_REACTORS
330
2A
102
}
330
2A
100
AcDbVisualStyle
  2
2dWireframe
 70
     4
 71
     0
 72
     2
 73
     0
 90
        0
 40
-0.6
 41
-30.0
 62
     5
 63
     7
421
 16777215
 74
     1
 91
        4
 64
     7
 65
   257
 75
     1
175
     1
 42
1.0
 92
        0
 66
   257
 43
1.0
 76
     1
 77
     6
 78
     2
 67
     7
 79
     5
170
     0
171
     0
290
     0
174
     0
 93
        1
 44
0.0
173
     0
291
     0
 45
0.0
1001
ACAD
1000
AcDbSavedByObjectVersion
1070
     0
  0
VISUALSTYLE
  5
31
102
{ACAD_REACTORS
330
2A
102
}
330
2A
100
AcDbVisualStyle
  2
3D Hidden
 70
     6
 71
     1
 72
     2
 73
     2
 90
        0
 40
-0.6
 41
-30.0
 62
     5
 63
     7
421
 16777215
 74
     2
 91
        2
 64
     7
 65
   257
 75
     2
175
     1
 42
40.0
 92
        0
 66
   257
 43
1.0
 76
     1
 77
     6
 78
     2
 67
     7
 79
     3
170
     0
171
     0
290
     0
174
     0
 93
        1
 44
0.0
173
     0
291
     0
 45
0.0
1001
ACAD
1000
AcDbSavedByObjectVersion
1070
     0
  0
VISUALSTYLE
  5
30
102
{ACAD_REACTORS
330
2A
102
}
330
2A
100
AcDbVisualStyle
  2
3dWireframe
 70
     5
 71
     0
 72
     2
 73
     0
 90
        0
 40
-0.6
 41
-30.0
 62
     5
 63
     7
421
 16777215
 74
     1
 91
        4
 64
     7
 65
   257
 75
     1
175
     1
 42
1.0
 92
        0
 66
   257
 43
1.0
 76
     1
 77
     6
 78
     2
 67
     7
 79
     5
170
     0
171
     0
290
     0
174
     0
 93
        1
 44
0.0
173
     0
291
     0
 45
0.0
1001
ACAD
1000
AcDbSavedByObjectVersion
1070
     0
  0
VISUALSTYLE
  5
32
102
{ACAD_REACTORS
330
2A
102
}
330
2A
100
AcDbVisualStyle
  2
Basic
 70
     7
 71
     1
 72
     0
 73
     1
 90
        0
 40
-0.6
 41
-30.0
 62
     5
 63
     7
421
 16777215
 74
     0
 91
        4
 64
     7
 65
   257
 75
     1
175
     1
 42
1.0
 92
        8
 66
     7
 43
1.0
 76
     1
 77
     6
 78
     2
 67
     7
 79
     5
170
     0
171
     0
290
     0
174
     0
 93
        1
 44
0.0
173
     0
291
     1
 45
0.0
1001
ACAD
1000
AcDbSavedByObjectVersion
1070
     0
  0
VISUALSTYLE
  5
36
102
{ACAD_REACTORS
330
2A
102
}
330
2A
100
AcDbVisualStyle
  2
Brighten
 70
    12
 71
     2
 72
     2
 73
     0
 90
        0
 40
-0.6
 41
-30.0
 62
     5
 63
     7
421
 16777215
 74
     1
 91
        4
 64
     7
 65
   257
 75
     1
175
     1
 42
1.0
 92
        8
 66
     7
 43
1.0
 76
     1
 77
     6
 78
     2
 67
     7
 79
     5
170
     0
171
     0
290
     0
174
     0
 93
        1
 44
50.0
173
     0
291
     1
 45
0.0
1001
ACAD
1000
AcDbSavedByObjectVersion
1070
     0
  0
VISUALSTYLE
  5
3A
102
{ACAD_REACTORS
330
2A
102
}
330
2A
100
AcDbVisualStyle
  2
ColorChange
 70
    16
 71
     2
 72
     2
 73
     3
 90
        0
 40
-0.6
 41
-30.0
 62
     5
 63
     8
421
  8421504
 74
     1
 91
        4
 64
     7
 65
   257
 75
     1
175
     1
 42
1.0
 92
        8
 66
     8
424
  8421504
 43
1.0
 76
     1
 77
     6
 78
     2
 67
     7
 79
     5
170
     0
171
     0
290
     0
174
     0
 93
        1
 44
0.0
173
     0
291
     1
 45
0.0
1001
ACAD
1000
AcDbSavedByObjectVersion
1070
     0
  0
VISUALSTYLE
  5
34
102
{ACAD_REACTORS
330
2A
102
}
330
2A
100
AcDbVisualStyle
  2
Conceptual
 70
     9
 71
     3
 72
     2
 73
     0
 90
        0
 40
-0.6
 41
-30.0
 62
     5
 63
     7
421
 16777215
 74
     2
 91
        2
 64
     7
 65
   257
 75
     1
175
     1
 42
40.0
 92
        8
 66
     7
 43
1.0
 76
     1
 77
     6
 78
     2
 67
     7
 79
     3
170
     0
171
     0
290
     0
174
     0
 93
        1
 44
0.0
173
     0
291
     0
 45
0.0
1001
ACAD
1000
AcDbSavedByObjectVersion
1070
     0
  0
VISUALSTYLE
  5
35
102
{ACAD_REACTORS
330
2A
102
}
330
2A
100
AcDbVisualStyle
  2
Dim
 70
    11
 71
     2
 72
     2
 73
     0
 90
        0
 40
-0.6
 41
-30.0
 62
     5
 63
     7
421
 16777215
 74
     1
 91
        4
 64
     7
 65
   257
 75
     1
175
     1
 42
1.0
 92
        8
 66
     7
 43
1.0
 76
     1
 77
     6
 78
     2
 67
     7
 79
     5
170
     0
171
     0
290
     0
174
     0
 93
        1
 44
-50.0
173
     0
291
     1
 45
0.0
1001
ACAD
1000
AcDbSavedByObjectVersion
1070
     0
  0
VISUALSTYLE
  5
39
102
{ACAD_REACTORS
330
2A
102
}
330
2A
100
AcDbVisualStyle
  2
Facepattern
 70
    15
 71
     2
 72
     2
 73
     0
 90
        0
 40
-0.6
 41
-30.0
 62
     5
 63
     7
421
 16777215
 74
     1
 91
        4
 64
     7
 65
   257
 75
     1
175
     1
 42
1.0
 92
        8
 66
     7
 43
1.0
 76
     1
 77
     6
 78
     2
 67
     7
 79
     5
170
     0
171
     0
290
     0
174
     0
 93
        1
 44
0.0
173
     0
291
     1
 45
0.0
1001
ACAD
1000
AcDbSavedByObjectVersion
1070
     0
  0
VISUALSTYLE
  5
2B
102
{ACAD_REACTORS
330
2A
102
}
330
2A
100
AcDbVisualStyle
  2
Flat
 70
     0
 71
     2
 72
     1
 73
     1
 90
        2
 40
-0.6
 41
30.0
 62
     5
 63
     7
421
 16777215
 74
     0
 91
        4
 64
     7
 65
   257
 75
     1
175
     1
 42
1.0
 92
        8
 66
     7
 43
1.0
 76
     1
 77
     6
 78
     2
 67
     7
 79
     5
170
     0
171
     0
290
     0
174
     0
 93
       13
 44
0.0
173
     0
291
     1
 45
0.0
1001
ACAD
1000
AcDbSavedByObjectVersion
1070
     0
  0
VISUALSTYLE
  5
2C
102
{ACAD_REACTORS
330
2A
102
}
330
2A
100
AcDbVisualStyle
  2
FlatWithEdges
 70
     1
 71
     2
 72
     1
 73
     1
 90
        2
 40
-0.6
 41
30.0
 62
     5
 63
     7
421
 16777215
 74
     1
 91
        4
 64
     7
 65
   257
 75
     1
175
     1
 42
1.0
 92
        0
 66
   257
 43
1.0
 76
     1
 77
     6
 78
     2
 67
     7
 79
     5
170
     0
171
     0
290
     0
174
     0
 93
       13
 44
0.0
173
     0
291
     1
 45
0.0
1001
ACAD
1000
AcDbSavedByObjectVersion
1070
     0
  0
VISUALSTYLE
  5
2D
102
{ACAD_REACTORS
330
2A
102
}
330
2A
100
AcDbVisualStyle
  2
Gouraud
 70
     2
 71
     2
 72
     2
 73
     1
 90
        2
 40
-0.6
 41
30.0
 62
     5
 63
     7
421
 16777215
 74
     0
 91
        4
 64
     7
 65
   257
 75
     1
175
     1
 42
1.0
 92
        0
 66
     7
 43
1.0
 76
     1
 77
     6
 78
     2
 67
     7
 79
     5
170
     0
171
     0
290
     0
174
     0
 93
       13
 44
0.0
173
     0
291
     1
 45
0.0
1001
ACAD
1000
AcDbSavedByObjectVersion
1070
     0
  0
VISUALSTYLE
  5
2E
102
{ACAD_REACTORS
330
2A
102
}
330
2A
100
AcDbVisualStyle
  2
GouraudWithEdges
 70
     3
 71
     2
 72
     2
 73
     1
 90
        2
 40
-0.6
 41
30.0
 62
     5
 63
     7
421
 16777215
 74
     1
 91
        4
 64
     7
 65
   257
 75
     1
175
     1
 42
1.0
 92
        0
 66
   257
 43
1.0
 76
     1
 77
     6
 78
     2
 67
     7
 79
     5
170
     0
171
     0
290
     0
174
     0
 93
       13
 44
0.0
173
     0
291
     1
 45
0.0
1001
ACAD
1000
AcDbSavedByObjectVersion
1070
     0
  0
VISUALSTYLE
  5
38
102
{ACAD_REACTORS
330
2A
102
}
330
2A
100
AcDbVisualStyle
  2
Linepattern
 70
    14
 71
     2
 72
     2
 73
     0
 90
        0
 40
-0.6
 41
-30.0
 62
     5
 63
     7
421
 16777215
 74
     1
 91
        4
 64
     7
 65
   257
 75
     7
175
     7
 42
1.0
 92
        8
 66
     7
 43
1.0
 76
     1
 77
     6
 78
     2
 67
     7
 79
     5
170
     0
171
     0
290
     0
174
     0
 93
        1
 44
0.0
173
     0
291
     1
 45
0.0
1001
ACAD
1000
AcDbSavedByObjectVersion
1070
     0
  0
VISUALSTYLE
  5
33
102
{ACAD_REACTORS
330
2A
102
}
330
2A
100
AcDbVisualStyle
  2
Realistic
 70
     8
 71
     2
 72
     2
 73
     0
 90
        0
 40
-0.6
 41
-30.0
 62
     5
 63
     7
421
 16777215
 74
     1
 91
        0
 64
     7
 65
   257
 75
     1
175
     1
 42
1.0
 92
        8
 66
     8
424
  7895160
 43
1.0
 76
     1
 77
     6
 78
     2
 67
     7
 79
     5
170
     0
171
     0
290
     0
174
     0
 93
       13
 44
0.0
173
     0
291
     0
 45
0.0
1001
ACAD
1000
AcDbSavedByObjectVersion
1070
     0
  0
VISUALSTYLE
  5
37
102
{ACAD_REACTORS
330
2A
102
}
330
2A
100
AcDbVisualStyle
  2
Thicken
 70
    13
 71
     2
 72
     2
 73
     0
 90
        0
 40
-0.6
 41
-30.0
 62
     5
 63
     7
421
 16777215
 74
     1
 91
        4
 64
     7
 65
   257
 75
     1
175
     1
 42
1.0
 92
       12
 66
     7
 43
1.0
 76
     1
 77
     6
 78
     2
 67
     7
 79
     5
170
     0
171
     0
290
     0
174
     0
 93
        1
 44
0.0
173
     0
291
     1
 45
0.0
1001
ACAD
1000
AcDbSavedByObjectVersion
1070
     0
  0
ENDSEC
  0
EOF
